  0
SECTION
  2
HEADER
  9
$ACADVER
  1
AC1012
  9
$DWGCODEPAGE
  3
ansi_1252
  9
$INSBASE
 10
0.0
 20
0.0
 30
0.0
  9
$EXTMIN
 10
0.125
 20
0.125
 30
-1.596242
  9
$EXTMAX
 10
31.17142
 20
19.947595
 30
0.015748
  9
$LIMMIN
 10
0.0
 20
0.0
  9
$LIMMAX
 10
32.0
 20
21.0
  9
$ORTHOMODE
 70
     1
  9
$REGENMODE
 70
     1
  9
$FILLMODE
 70
     1
  9
$QTEXTMODE
 70
     0
  9
$MIRRTEXT
 70
     1
  9
$DRAGMODE
 70
     2
  9
$LTSCALE
 40
0.5
  9
$OSMODE
 70
     0
  9
$ATTMODE
 70
     1
  9
$TEXTSIZE
 40
0.25
  9
$TRACEWID
 40
0.05
  9
$TEXTSTYLE
  7
STANDARD
  9
$CLAYER
  8
COOLING
  9
$CELTYPE
  6
BYLAYER
  9
$CECOLOR
 62
   256
  9
$CELTSCALE
 40
1.0
  9
$DELOBJ
 70
     1
  9
$DISPSILH
 70
     0
  9
$DIMSCALE
 40
1.0
  9
$DIMASZ
 40
0.18
  9
$DIMEXO
 40
0.0625
  9
$DIMDLI
 40
0.38
  9
$DIMRND
 40
0.0
  9
$DIMDLE
 40
0.0
  9
$DIMEXE
 40
0.18
  9
$DIMTP
 40
0.001
  9
$DIMTM
 40
0.0
  9
$DIMTXT
 40
0.18
  9
$DIMCEN
 40
0.09
  9
$DIMTSZ
 40
0.0
  9
$DIMTOL
 70
     0
  9
$DIMLIM
 70
     0
  9
$DIMTIH
 70
     1
  9
$DIMTOH
 70
     1
  9
$DIMSE1
 70
     0
  9
$DIMSE2
 70
     0
  9
$DIMTAD
 70
     0
  9
$DIMZIN
 70
     0
  9
$DIMBLK
  1

  9
$DIMASO
 70
     1
  9
$DIMSHO
 70
     1
  9
$DIMPOST
  1

  9
$DIMAPOST
  1

  9
$DIMALT
 70
     0
  9
$DIMALTD
 70
     2
  9
$DIMALTF
 40
25.4
  9
$DIMLFAC
 40
1.0
  9
$DIMTOFL
 70
     0
  9
$DIMTVP
 40
0.0
  9
$DIMTIX
 70
     0
  9
$DIMSOXD
 70
     0
  9
$DIMSAH
 70
     0
  9
$DIMBLK1
  1

  9
$DIMBLK2
  1

  9
$DIMSTYLE
  2
SU1
  9
$DIMCLRD
 70
   256
  9
$DIMCLRE
 70
     0
  9
$DIMCLRT
 70
     0
  9
$DIMTFAC
 40
1.0
  9
$DIMGAP
 40
0.09
  9
$DIMJUST
 70
     0
  9
$DIMSD1
 70
     0
  9
$DIMSD2
 70
     0
  9
$DIMTOLJ
 70
     1
  9
$DIMTZIN
 70
     0
  9
$DIMALTZ
 70
     0
  9
$DIMALTTZ
 70
     0
  9
$DIMFIT
 70
     0
  9
$DIMUPT
 70
     0
  9
$DIMUNIT
 70
     2
  9
$DIMDEC
 70
     3
  9
$DIMTDEC
 70
     3
  9
$DIMALTU
 70
     2
  9
$DIMALTTD
 70
     2
  9
$DIMTXSTY
  7
STANDARD
  9
$DIMAUNIT
 70
     0
  9
$LUNITS
 70
     2
  9
$LUPREC
 70
     4
  9
$SKETCHINC
 40
0.1
  9
$FILLETRAD
 40
0.125
  9
$AUNITS
 70
     0
  9
$AUPREC
 70
     0
  9
$MENU
  1
acad
  9
$ELEVATION
 40
0.0
  9
$PELEVATION
 40
0.0
  9
$THICKNESS
 40
0.0
  9
$LIMCHECK
 70
     0
  9
$BLIPMODE
 70
     1
  9
$CHAMFERA
 40
0.0
  9
$CHAMFERB
 40
0.0
  9
$CHAMFERC
 40
0.0
  9
$CHAMFERD
 40
0.0
  9
$SKPOLY
 70
     0
  9
$TDCREATE
 40
2450728.602905382
  9
$TDUPDATE
 40
2450819.676594687
  9
$TDINDWG
 40
1.6183155671
  9
$TDUSRTIMER
 40
1.6183155671
  9
$USRTIMER
 70
     1
  9
$ANGBASE
 50
0.0
  9
$ANGDIR
 70
     0
  9
$PDMODE
 70
     0
  9
$PDSIZE
 40
0.0
  9
$PLINEWID
 40
0.0
  9
$COORDS
 70
     1
  9
$SPLFRAME
 70
     0
  9
$SPLINETYPE
 70
     6
  9
$SPLINESEGS
 70
     8
  9
$ATTDIA
 70
     0
  9
$ATTREQ
 70
     1
  9
$HANDLING
 70
     1
  9
$HANDSEED
  5
170C
  9
$SURFTAB1
 70
     6
  9
$SURFTAB2
 70
     6
  9
$SURFTYPE
 70
     6
  9
$SURFU
 70
     6
  9
$SURFV
 70
     6
  9
$UCSNAME
  2

  9
$UCSORG
 10
0.0
 20
0.0
 30
0.0
  9
$UCSXDIR
 10
1.0
 20
0.0
 30
0.0
  9
$UCSYDIR
 10
0.0
 20
1.0
 30
0.0
  9
$PUCSNAME
  2

  9
$PUCSORG
 10
0.0
 20
0.0
 30
0.0
  9
$PUCSXDIR
 10
1.0
 20
0.0
 30
0.0
  9
$PUCSYDIR
 10
0.0
 20
1.0
 30
0.0
  9
$USERI1
 70
     0
  9
$USERI2
 70
     0
  9
$USERI3
 70
     0
  9
$USERI4
 70
     0
  9
$USERI5
 70
     0
  9
$USERR1
 40
0.0
  9
$USERR2
 40
0.0
  9
$USERR3
 40
0.0
  9
$USERR4
 40
0.0
  9
$USERR5
 40
0.0
  9
$WORLDVIEW
 70
     1
  9
$SHADEDGE
 70
     3
  9
$SHADEDIF
 70
    70
  9
$TILEMODE
 70
     1
  9
$MAXACTVP
 70
    16
  9
$PINSBASE
 10
0.0
 20
0.0
 30
0.0
  9
$PLIMCHECK
 70
     0
  9
$PEXTMIN
 10
1.000000E+20
 20
1.000000E+20
 30
1.000000E+20
  9
$PEXTMAX
 10
-1.000000E+20
 20
-1.000000E+20
 30
-1.000000E+20
  9
$PLIMMIN
 10
0.0
 20
0.0
  9
$PLIMMAX
 10
12.0
 20
9.0
  9
$UNITMODE
 70
     0
  9
$VISRETAIN
 70
     0
  9
$PLINEGEN
 70
     0
  9
$PSLTSCALE
 70
     1
  9
$TREEDEPTH
 70
  3020
  9
$PICKSTYLE
 70
     1
  9
$CMLSTYLE
  2
STANDARD
  9
$CMLJUST
 70
     0
  9
$CMLSCALE
 40
1.0
  9
$SAVEIMAGES
 70
     0
  0
ENDSEC
  0
SECTION
  2
CLASSES
  0
CLASS
  1
ACMESCOPE
  2
AcMeScope
  3
ACME_MODULE_NAME
 90
        0
280
     0
281
     0
  0
CLASS
  1
ACMECOMMANDHISTORY
  2
AcMeCommandHistory
  3
ACME_MODULE_NAME
 90
        0
280
     0
281
     0
  0
CLASS
  1
AcRfInsAdjusterMgr
  2
AcRfInsAdjusterMgr
  3
ACME_MODULE_NAME
 90
        0
280
     0
281
     0
  0
CLASS
  1
ACGREFMASTER
  2
AcGrefMaster
  3
"AcadRfServer"
 90
        0
280
     0
281
     0
  0
CLASS
  1
AmiMaster
  2
AmiMaster
  3
"AmiServices"
 90
        0
280
     0
281
     0
  0
CLASS
  1
ACASGREFMASTER
  2
AcAsGrefMaster
  3
"AutoSurfResolver"
 90
        0
280
     0
281
     0
  0
CLASS
  1
ADAPPL
  2
AcAdAppl
  3
"DesignerServices"
 90
        0
280
     0
281
     0
  0
CLASS
  1
DEPMGR
  2
AcAdDepMgr
  3
"DesignerServices"
 90
        0
280
     0
281
     0
  0
CLASS
  1
PARAMMGR
  2
AcAdParamMgr
  3
"DesignerServices"
 90
        0
280
     0
281
     0
  0
CLASS
  1
PARAMSCOPE
  2
AcAdParamScope
  3
"DesignerServices"
 90
        0
280
     0
281
     0
  0
CLASS
  1
"IM_SYSVAR_MAN"
  2
AcImSysVarManager
  3
"ADAM"
 90
        0
280
     0
281
     0
  0
CLASS
  1
SYSTEM_VAR_INT
  2
AcImIntSysVar
  3
"ADAM"
 90
        0
280
     0
281
     0
  0
CLASS
  1
SYSTEM_VAR_REAL
  2
AcImRealSysVar
  3
"ADAM"
 90
        0
280
     0
281
     0
  0
CLASS
  1
SYSTEM_VAR_STR
  2
AcImStrSysVar
  3
"ADAM"
 90
        0
280
     0
281
     0
  0
CLASS
  1
NAMEDAPPL
  2
AcAdNamedAppl
  3
"DesignerServices"
 90
        0
280
     0
281
     0
  0
CLASS
  1
ADPART
  2
AcAdPart
  3
"DesignerServices"
 90
        0
280
     0
281
     1
  0
CLASS
  1
ADBASE
  2
AcAdBase
  3
"DesignerServices"
 90
        0
280
     0
281
     0
  0
CLASS
  1
BODYID
  2
AcAdBodyId
  3
"DesignerServices"
 90
        0
280
     0
281
     0
  0
CLASS
  1
WORKPLANEDISPLAYMGR
  2
AcAdDisplayMgr
  3
"DesignerServices"
 90
        0
280
     0
281
     0
  0
CLASS
  1
ADHNTMPLT
  2
AdHoleNoteTemplateMgr
  3
"DesignerServices"
 90
        0
280
     0
281
     0
  0
CLASS
  1
AM_HNTEMPLATE_MGR_NAME
  2
AdHoleNoteTemplateMgrName
  3
"DesignerServices"
 90
        0
280
     0
281
     0
  0
CLASS
  1
AcAdGrefModule
  2
AcAdGrefModule
  3
AD_GREF_SERVICES_NSTR
 90
        0
280
     0
281
     0
  0
CLASS
  1
AM_DRAWING_MGR
  2
AcDmDwgMgr
  3
"Designer_Drawing_Mgmt"
 90
        0
280
     0
281
     0
  0
CLASS
  1
AM_DWG_DOCUMENT
  2
AcDmDwgDocument
  3
"Designer_Drawing_Mgmt"
 90
        0
280
     0
281
     0
  0
CLASS
  1
AM_DWG_SHEET
  2
AcDmSheet
  3
"Designer_Drawing_Mgmt"
 90
        0
280
     0
281
     0
  0
CLASS
  1
AM_VIEWDIMPARMAP
  2
AcDmViewDimParMap
  3
"Designer_Drawing_Mgmt"
 90
        0
280
     0
281
     0
  0
CLASS
  1
AM_DWGMGR_NAME
  2
AcDmDwgMgrName
  3
"Designer_Drawing_Mgmt"
 90
        0
280
     0
281
     0
  0
CLASS
  1
ACAMPROJECT
  2
AcAmProject
  3
"DesignerAssemblies"
 90
        0
280
     0
281
     0
  0
CLASS
  1
ACAMGRCOMPDEF
  2
AcAmGrCompDef
  3
"DesignerAssemblies"
 90
        0
280
     0
281
     0
  0
CLASS
  1
ACAMCOMPDEF
  2
AcAmCompDef
  3
"DesignerAssemblies"
 90
        0
280
     0
281
     0
  0
CLASS
  1
ACAMCOMPDEFMGR
  2
AcAmCompDefMgr
  3
"DesignerAssemblies"
 90
        0
280
     0
281
     0
  0
CLASS
  1
AMCONTEXTMGR
  2
AcAmContextMgr
  3
"DesignerAssemblies"
 90
        0
280
     0
281
     0
  0
CLASS
  1
AcAmContextModeler
  2
AcAmContextModeler
  3
"DesignerAssemblies"
 90
        0
280
     0
281
     0
  0
CLASS
  1
ACAMDRAWINGMAN
  2
AcAmDrawingMan
  3
"DesignerAssemblies"
 90
        0
280
     0
281
     0
  0
CLASS
  1
ASSYSVARS
  2
AcAsSysVars
  3
"AutoSurf"
 90
        0
280
     0
281
     0
  0
CLASS
  1
ASSTATICVARS
  2
AcAsStaticVars
  3
"AutoSurf"
 90
        0
280
     0
281
     0
  0
CLASS
  1
ASAPP
  2
AcAsAppObject
  3
"AutoSurf"
 90
        0
280
     0
281
     0
  0
CLASS
  1
AGDICTIONARY
  2
AgDictionary
  3
"AccelView"
 90
        1
280
     0
281
     0
  0
ENDSEC
  0
SECTION
  2
TABLES
  0
TABLE
  2
VPORT
  5
8
100
AcDbSymbolTable
 70
     5
  0
VPORT
  5
170B
100
AcDbSymbolTableRecord
100
AcDbViewportTableRecord
  2
*ACTIVE
 70
     0
 10
0.0
 20
0.0
 11
1.0
 21
1.0
 12
15.64821
 22
10.254873
 13
0.0
 23
0.0
 14
0.125
 24
0.125
 15
1.0
 25
1.0
 16
0.0
 26
0.0
 36
1.0
 17
0.0
 27
0.0
 37
0.0
 40
20.273235
 41
1.532419
 42
50.0
 43
0.0
 44
0.0
 50
0.0
 51
0.0
 71
     0
 72
   100
 73
     1
 74
     1
 75
     0
 76
     1
 77
     0
 78
     0
  0
ENDTAB
  0
TABLE
  2
LTYPE
  5
5
100
AcDbSymbolTable
 70
     8
  0
LTYPE
  5
14
100
AcDbSymbolTableRecord
100
AcDbLinetypeTableRecord
  2
BYBLOCK
 70
     0
  3

 72
    65
 73
     0
 40
0.0
  0
LTYPE
  5
15
100
AcDbSymbolTableRecord
100
AcDbLinetypeTableRecord
  2
BYLAYER
 70
     0
  3

 72
    65
 73
     0
 40
0.0
  0
LTYPE
  5
16
100
AcDbSymbolTableRecord
100
AcDbLinetypeTableRecord
  2
CONTINUOUS
 70
    64
  3
Solid line
 72
    65
 73
     0
 40
0.0
  0
LTYPE
  5
4F
100
AcDbSymbolTableRecord
100
AcDbLinetypeTableRecord
  2
HIDDEN
 70
    64
  3
__ __ __ __ __ __ __ __ __ __ __ __ __ __ __ __
 72
    65
 73
     2
 40
0.375
 49
0.25
 74
     0
 49
-0.125
 74
     0
  0
LTYPE
  5
51
100
AcDbSymbolTableRecord
100
AcDbLinetypeTableRecord
  2
PHANTOM2
 70
     0
  3
___ _ _ ___ _ _ ___ _ _ ___ _ _ ___ _ _ ___ _ _
 72
    65
 73
     6
 40
1.25
 49
0.625
 74
     0
 49
-0.125
 74
     0
 49
0.125
 74
     0
 49
-0.125
 74
     0
 49
0.125
 74
     0
 49
-0.125
 74
     0
  0
LTYPE
  5
5C
100
AcDbSymbolTableRecord
100
AcDbLinetypeTableRecord
  2
CENTER
 70
    64
  3
____ _ ____ _ ____ _ ____ _ ____ _ ____ _ ____ 
 72
    65
 73
     4
 40
2.0
 49
1.25
 74
     0
 49
-0.25
 74
     0
 49
0.25
 74
     0
 49
-0.25
 74
     0
  0
LTYPE
  5
7C
100
AcDbSymbolTableRecord
100
AcDbLinetypeTableRecord
  2
ASULTYPE
 70
     0
  3
Solid line
 72
    65
 73
     2
 40
3.0
 49
2.5
 74
     0
 49
0.5
 74
     0
  0
LTYPE
  5
7D
100
AcDbSymbolTableRecord
100
AcDbLinetypeTableRecord
  2
ASVLTYPE
 70
     0
  3
__ __ __ __ __ __ __ __ __ __ __ __ __ __ __ __ __ __ __ __ __
 72
    65
 73
     2
 40
0.75
 49
0.5
 74
     0
 49
-0.25
 74
     0
  0
LTYPE
  5
3A4
100
AcDbSymbolTableRecord
100
AcDbLinetypeTableRecord
  2
CENTER2
 70
    64
  3
___ _ ___ _ ___ _ ___ _ ___ _ ___ _ ___ _ ___ _
 72
    65
 73
     4
 40
1.125
 49
0.75
 74
     0
 49
-0.125
 74
     0
 49
0.125
 74
     0
 49
-0.125
 74
     0
  0
LTYPE
  5
E73
100
AcDbSymbolTableRecord
100
AcDbLinetypeTableRecord
  2
BORDER2
 70
    64
  3
__.__.__.__.__.__.__.__.__.__.__.__.__.__.__.__
 72
    65
 73
     6
 40
0.875
 49
0.25
 74
     0
 49
-0.125
 74
     0
 49
0.25
 74
     0
 49
-0.125
 74
     0
 49
0.0
 74
     0
 49
-0.125
 74
     0
  0
ENDTAB
  0
TABLE
  2
LAYER
  5
2
100
AcDbSymbolTable
 70
    30
  0
LAYER
  5
F
100
AcDbSymbolTableRecord
100
AcDbLayerTableRecord
  2
0
 70
    64
 62
     7
  6
CONTINUOUS
  0
LAYER
  5
7F
100
AcDbSymbolTableRecord
100
AcDbLayerTableRecord
  2
CENTER
 70
    64
 62
     1
  6
CENTER
  0
LAYER
  5
80
100
AcDbSymbolTableRecord
100
AcDbLayerTableRecord
  2
DIM
 70
    64
 62
     3
  6
CONTINUOUS
  0
LAYER
  5
81
100
AcDbSymbolTableRecord
100
AcDbLayerTableRecord
  2
TEXT
 70
    64
 62
     7
  6
CONTINUOUS
  0
LAYER
  5
83
100
AcDbSymbolTableRecord
100
AcDbLayerTableRecord
  2
HIDDEN
 70
    64
 62
     7
  6
HIDDEN
  0
LAYER
  5
9C
100
AcDbSymbolTableRecord
100
AcDbLayerTableRecord
  2
BORDER
 70
    64
 62
     6
  6
CONTINUOUS
  0
LAYER
  5
3A5
100
AcDbSymbolTableRecord
100
AcDbLayerTableRecord
  2
SECTION
 70
    64
 62
     1
  6
CONTINUOUS
  0
LAYER
  5
3A6
100
AcDbSymbolTableRecord
100
AcDbLayerTableRecord
  2
HDI
 70
    64
 62
     3
  6
CONTINUOUS
  0
LAYER
  5
3A7
100
AcDbSymbolTableRecord
100
AcDbLayerTableRecord
  2
BEAMS
 70
    64
 62
     6
  6
CONTINUOUS
  0
LAYER
  5
3AA
100
AcDbSymbolTableRecord
100
AcDbLayerTableRecord
  2
SPACER
 70
    64
 62
     5
  6
CONTINUOUS
  0
LAYER
  5
3AB
100
AcDbSymbolTableRecord
100
AcDbLayerTableRecord
  2
STAYCLEAR
 70
    64
 62
    21
  6
CONTINUOUS
  0
LAYER
  5
3AC
100
AcDbSymbolTableRecord
100
AcDbLayerTableRecord
  2
HDI_AIN_12
 70
    64
 62
     5
  6
CONTINUOUS
  0
LAYER
  5
3AE
100
AcDbSymbolTableRecord
100
AcDbLayerTableRecord
  2
KEVLAR
 70
    64
 62
     7
  6
CONTINUOUS
  0
LAYER
  5
3AF
100
AcDbSymbolTableRecord
100
AcDbLayerTableRecord
  2
FOOT-A
 70
    64
 62
     1
  6
CONTINUOUS
  0
LAYER
  5
3B1
100
AcDbSymbolTableRecord
100
AcDbLayerTableRecord
  2
BEAMS-B
 70
    64
 62
     7
  6
CONTINUOUS
  0
LAYER
  5
5D5
100
AcDbSymbolTableRecord
100
AcDbLayerTableRecord
  2
COOLING
 70
    64
 62
     3
  6
CONTINUOUS
  0
LAYER
  5
5D6
100
AcDbSymbolTableRecord
100
AcDbLayerTableRecord
  2
BASE
 70
    64
 62
     7
  6
CONTINUOUS
  0
LAYER
  5
76C
100
AcDbSymbolTableRecord
100
AcDbLayerTableRecord
  2
SCRATCH
 70
    64
 62
     7
  6
CONTINUOUS
  0
LAYER
  5
76D
100
AcDbSymbolTableRecord
100
AcDbLayerTableRecord
  2
BUSHING
 70
    64
 62
     1
  6
CONTINUOUS
  0
LAYER
  5
76E
100
AcDbSymbolTableRecord
100
AcDbLayerTableRecord
  2
FOOT
 70
    64
 62
     1
  6
CONTINUOUS
  0
LAYER
  5
76F
100
AcDbSymbolTableRecord
100
AcDbLayerTableRecord
  2
BONDPAD
 70
    64
 62
     1
  6
CONTINUOUS
  0
LAYER
  5
B0C
100
AcDbSymbolTableRecord
100
AcDbLayerTableRecord
  2
C-FIBER
 70
    64
 62
     1
  6
CONTINUOUS
  0
LAYER
  5
BC7
100
AcDbSymbolTableRecord
100
AcDbLayerTableRecord
  2
TEFLON
 70
    64
 62
     5
  6
CONTINUOUS
  0
LAYER
  5
BF7
100
AcDbSymbolTableRecord
100
AcDbLayerTableRecord
  2
LID
 70
    64
 62
     5
  6
CONTINUOUS
  0
LAYER
  5
C52
100
AcDbSymbolTableRecord
100
AcDbLayerTableRecord
  2
BOARD
 70
    64
 62
     3
  6
CONTINUOUS
  0
LAYER
  5
C93
100
AcDbSymbolTableRecord
100
AcDbLayerTableRecord
  2
STRAIN-R
 70
    64
 62
     7
  6
CONTINUOUS
  0
LAYER
  5
CA1
100
AcDbSymbolTableRecord
100
AcDbLayerTableRecord
  2
FLEX
 70
    64
 62
     2
  6
CONTINUOUS
  0
LAYER
  5
E91
100
AcDbSymbolTableRecord
100
AcDbLayerTableRecord
  2
SCREW
 70
    64
 62
     3
  6
CONTINUOUS
  0
LAYER
  5
EBA
100
AcDbSymbolTableRecord
100
AcDbLayerTableRecord
  2
SPRING
 70
    64
 62
     7
  6
CONTINUOUS
  0
LAYER
  5
F78
100
AcDbSymbolTableRecord
100
AcDbLayerTableRecord
  2
CABLE
 70
    64
 62
     4
  6
CONTINUOUS
  0
ENDTAB
  0
TABLE
  2
STYLE
  5
3
100
AcDbSymbolTable
 70
     3
  0
STYLE
  5
10
100
AcDbSymbolTableRecord
100
AcDbTextStyleTableRecord
  2
STANDARD
 70
    64
 40
0.0
 41
1.0
 50
0.0
 71
     0
 42
0.25
  3
txt
  4

  0
STYLE
  5
85
100
AcDbSymbolTableRecord
100
AcDbTextStyleTableRecord
  2
CIM_TB
 70
    64
 40
0.0
 41
1.0
 50
0.0
 71
     0
 42
0.2
  3
romans
  4

  0
STYLE
  5
9D
100
AcDbSymbolTableRecord
100
AcDbTextStyleTableRecord
  2
ADESK2
 70
    64
 40
0.0
 41
1.0
 50
0.0
 71
     0
 42
0.065
  3
romans
  4

  0
ENDTAB
  0
TABLE
  2
VIEW
  5
6
100
AcDbSymbolTable
 70
     0
  0
ENDTAB
  0
TABLE
  2
UCS
  5
7
100
AcDbSymbolTable
 70
     0
  0
ENDTAB
  0
TABLE
  2
APPID
  5
9
100
AcDbSymbolTable
 70
     6
  0
APPID
  5
11
100
AcDbSymbolTableRecord
100
AcDbRegAppTableRecord
  2
ACAD
 70
     0
  0
APPID
  5
5F
100
AcDbSymbolTableRecord
100
AcDbRegAppTableRecord
  2
AD_DRAW
 70
     0
  0
APPID
  5
77
100
AcDbSymbolTableRecord
100
AcDbRegAppTableRecord
  2
DESIGNERASSEMBLIES
 70
     0
  0
APPID
  5
78
100
AcDbSymbolTableRecord
100
AcDbRegAppTableRecord
  2
MCAD_NO_VIS
 70
     0
  0
APPID
  5
7E
100
AcDbSymbolTableRecord
100
AcDbRegAppTableRecord
  2
ASURF_PCURVE_APPNAME
 70
     0
  0
APPID
  5
82
100
AcDbSymbolTableRecord
100
AcDbRegAppTableRecord
  2
TB_S_MPD
 70
     0
  0
ENDTAB
  0
TABLE
  2
DIMSTYLE
  5
A
100
AcDbSymbolTable
 70
     6
  0
DIMSTYLE
105
1D
100
AcDbSymbolTableRecord
100
AcDbDimStyleTableRecord
  2
STANDARD
 70
     0
  3

  4

  5

  6

  7

 40
1.0
 41
0.18
 42
0.0625
 43
0.38
 44
0.18
 45
0.0
 46
0.0
 47
0.0
 48
0.0
140
0.18
141
0.09
142
0.0
143
25.4
144
1.0
145
0.0
146
1.0
147
0.09
 71
     0
 72
     0
 73
     1
 74
     1
 75
     0
 76
     0
 77
     0
 78
     0
170
     0
171
     2
172
     0
173
     0
174
     0
175
     0
176
     0
177
     0
178
     0
270
     2
271
     4
272
     4
273
     2
274
     2
340
10
275
     0
280
     0
281
     0
282
     0
283
     1
284
     0
285
     0
286
     0
287
     3
288
     0
  0
DIMSTYLE
105
8D
100
AcDbSymbolTableRecord
100
AcDbDimStyleTableRecord
  2
SU1
 70
     0
  3

  4

  5

  6

  7

 40
1.0
 41
0.18
 42
0.0625
 43
0.38
 44
0.18
 45
0.0
 46
0.0
 47
0.001
 48
0.0
140
0.18
141
0.09
142
0.0
143
25.4
144
1.0
145
0.0
146
1.0
147
0.09
 71
     0
 72
     0
 73
     1
 74
     1
 75
     0
 76
     0
 77
     0
 78
     0
170
     0
171
     2
172
     0
173
     0
174
     0
175
     0
176
     0
177
     0
178
     0
270
     2
271
     3
272
     3
273
     2
274
     2
340
10
275
     0
280
     0
281
     0
282
     0
283
     1
284
     0
285
     0
286
     0
287
     0
288
     0
  0
DIMSTYLE
105
8E
100
AcDbSymbolTableRecord
100
AcDbDimStyleTableRecord
  2
SU1$4
 70
     0
  3

  4

  5

  6

  7

 40
1.0
 41
0.18
 42
0.0625
 43
0.38
 44
0.18
 45
0.0
 46
0.0
 47
0.001
 48
0.0
140
0.18
141
0.09
142
0.0
143
25.4
144
1.0
145
0.0
146
1.0
147
0.09
 71
     0
 72
     0
 73
     1
 74
     1
 75
     0
 76
     0
 77
     0
 78
     0
170
     0
171
     2
172
     0
173
     0
174
     0
175
     0
176
     0
177
     0
178
     0
270
     2
271
     3
272
     3
273
     2
274
     2
340
10
275
     0
280
     0
281
     0
282
     0
283
     1
284
     0
285
     0
286
     0
287
     0
288
     1
  0
DIMSTYLE
105
8F
100
AcDbSymbolTableRecord
100
AcDbDimStyleTableRecord
  2
SU1$2
 70
     0
  3

  4

  5

  6

  7

 40
1.0
 41
0.18
 42
0.0625
 43
0.38
 44
0.18
 45
0.0
 46
0.0
 47
0.001
 48
0.0
140
0.18
141
0.09
142
0.0
143
25.4
144
1.0
145
0.0
146
1.0
147
0.09
 71
     0
 72
     0
 73
     1
 74
     1
 75
     0
 76
     0
 77
     0
 78
     0
170
     0
171
     2
172
     0
173
     0
174
     0
175
     0
176
     0
177
     0
178
     0
270
     2
271
     1
272
     3
273
     2
274
     2
340
10
275
     0
280
     0
281
     0
282
     0
283
     1
284
     0
285
     0
286
     0
287
     0
288
     0
  0
DIMSTYLE
105
90
100
AcDbSymbolTableRecord
100
AcDbDimStyleTableRecord
  2
SU1$3
 70
     0
  3

  4

  5

  6

  7

 40
1.0
 41
0.18
 42
0.0625
 43
0.38
 44
0.18
 45
0.0
 46
0.0
 47
0.001
 48
0.0
140
0.18
141
0.09
142
0.0
143
25.4
144
1.0
145
0.0
146
1.0
147
0.09
 71
     0
 72
     0
 73
     1
 74
     1
 75
     0
 76
     0
 77
     0
 78
     0
170
     0
171
     2
172
     0
173
     0
174
     0
175
     0
176
     0
177
     0
178
     0
270
     2
271
     3
272
     3
273
     2
274
     2
340
10
275
     0
280
     0
281
     0
282
     0
283
     1
284
     0
285
     0
286
     0
287
     0
288
     1
  0
DIMSTYLE
105
91
100
AcDbSymbolTableRecord
100
AcDbDimStyleTableRecord
  2
SU1$7
 70
     0
  3

  4

  5

  6

  7

 40
1.0
 41
0.18
 42
0.0625
 43
0.38
 44
0.18
 45
0.0
 46
0.0
 47
0.001
 48
0.0
140
0.18
141
0.09
142
0.0
143
25.4
144
1.0
145
0.0
146
1.0
147
0.09
 71
     0
 72
     0
 73
     1
 74
     1
 75
     0
 76
     0
 77
     0
 78
     0
170
     0
171
     2
172
     0
173
     0
174
     0
175
     0
176
     0
177
     0
178
     0
270
     2
271
     3
272
     3
273
     2
274
     2
340
10
275
     0
280
     0
281
     0
282
     0
283
     1
284
     0
285
     0
286
     0
287
     0
288
     1
  0
ENDTAB
  0
TABLE
  2
BLOCK_RECORD
  5
1
100
AcDbSymbolTable
 70
    50
  0
BLOCK_RECORD
  5
1A
100
AcDbSymbolTableRecord
100
AcDbBlockTableRecord
  2
*MODEL_SPACE
  0
BLOCK_RECORD
  5
17
100
AcDbSymbolTableRecord
100
AcDbBlockTableRecord
  2
*PAPER_SPACE
  0
BLOCK_RECORD
  5
6B
100
AcDbSymbolTableRecord
100
AcDbBlockTableRecord
  2
*U0
  0
BLOCK_RECORD
  5
9E
100
AcDbSymbolTableRecord
100
AcDbBlockTableRecord
  2
C-BORDER
  0
BLOCK_RECORD
  5
10F
100
AcDbSymbolTableRecord
100
AcDbBlockTableRecord
  2
A$C4323
  0
BLOCK_RECORD
  5
120
100
AcDbSymbolTableRecord
100
AcDbBlockTableRecord
  2
*X3
  0
BLOCK_RECORD
  5
132
100
AcDbSymbolTableRecord
100
AcDbBlockTableRecord
  2
A$C40C5
  0
BLOCK_RECORD
  5
148
100
AcDbSymbolTableRecord
100
AcDbBlockTableRecord
  2
*X5
  0
BLOCK_RECORD
  5
158
100
AcDbSymbolTableRecord
100
AcDbBlockTableRecord
  2
A$C31
  0
BLOCK_RECORD
  5
1AB
100
AcDbSymbolTableRecord
100
AcDbBlockTableRecord
  2
A$C3B8
  0
BLOCK_RECORD
  5
353
100
AcDbSymbolTableRecord
100
AcDbBlockTableRecord
  2
*X8
  0
BLOCK_RECORD
  5
360
100
AcDbSymbolTableRecord
100
AcDbBlockTableRecord
  2
*X9
  0
BLOCK_RECORD
  5
36A
100
AcDbSymbolTableRecord
100
AcDbBlockTableRecord
  2
A$CF1C0
  0
BLOCK_RECORD
  5
6DE
100
AcDbSymbolTableRecord
100
AcDbBlockTableRecord
  2
POST-1
  0
BLOCK_RECORD
  5
6F8
100
AcDbSymbolTableRecord
100
AcDbBlockTableRecord
  2
A$C23D
  0
BLOCK_RECORD
  5
737
100
AcDbSymbolTableRecord
100
AcDbBlockTableRecord
  2
*X13
  0
BLOCK_RECORD
  5
751
100
AcDbSymbolTableRecord
100
AcDbBlockTableRecord
  2
*X14
  0
BLOCK_RECORD
  5
770
100
AcDbSymbolTableRecord
100
AcDbBlockTableRecord
  2
L1-2-HDI
  0
BLOCK_RECORD
  5
7D3
100
AcDbSymbolTableRecord
100
AcDbBlockTableRecord
  2
*X16
  0
BLOCK_RECORD
  5
7ED
100
AcDbSymbolTableRecord
100
AcDbBlockTableRecord
  2
*X17
  0
BLOCK_RECORD
  5
808
100
AcDbSymbolTableRecord
100
AcDbBlockTableRecord
  2
L12T-HDI
  0
BLOCK_RECORD
  5
915
100
AcDbSymbolTableRecord
100
AcDbBlockTableRecord
  2
D-BORDER
  0
BLOCK_RECORD
  5
A23
100
AcDbSymbolTableRecord
100
AcDbBlockTableRecord
  2
*U21
  0
BLOCK_RECORD
  5
A30
100
AcDbSymbolTableRecord
100
AcDbBlockTableRecord
  2
*U22
  0
BLOCK_RECORD
  5
A48
100
AcDbSymbolTableRecord
100
AcDbBlockTableRecord
  2
*U23
  0
BLOCK_RECORD
  5
B5A
100
AcDbSymbolTableRecord
100
AcDbBlockTableRecord
  2
*U24
  0
BLOCK_RECORD
  5
B77
100
AcDbSymbolTableRecord
100
AcDbBlockTableRecord
  2
*U25
  0
BLOCK_RECORD
  5
B99
100
AcDbSymbolTableRecord
100
AcDbBlockTableRecord
  2
*U26
  0
BLOCK_RECORD
  5
BB7
100
AcDbSymbolTableRecord
100
AcDbBlockTableRecord
  2
*U27
  0
BLOCK_RECORD
  5
BFE
100
AcDbSymbolTableRecord
100
AcDbBlockTableRecord
  2
*U28
  0
BLOCK_RECORD
  5
C5E
100
AcDbSymbolTableRecord
100
AcDbBlockTableRecord
  2
*U29
  0
BLOCK_RECORD
  5
CFF
100
AcDbSymbolTableRecord
100
AcDbBlockTableRecord
  2
*U30
  0
BLOCK_RECORD
  5
DD0
100
AcDbSymbolTableRecord
100
AcDbBlockTableRecord
  2
*U31
  0
BLOCK_RECORD
  5
E40
100
AcDbSymbolTableRecord
100
AcDbBlockTableRecord
  2
*U32
  0
BLOCK_RECORD
  5
E5B
100
AcDbSymbolTableRecord
100
AcDbBlockTableRecord
  2
*U33
  0
BLOCK_RECORD
  5
E80
100
AcDbSymbolTableRecord
100
AcDbBlockTableRecord
  2
*U34
  0
BLOCK_RECORD
  5
E88
100
AcDbSymbolTableRecord
100
AcDbBlockTableRecord
  2
*U35
  0
BLOCK_RECORD
  5
E92
100
AcDbSymbolTableRecord
100
AcDbBlockTableRecord
  2
*U36
  0
BLOCK_RECORD
  5
EA0
100
AcDbSymbolTableRecord
100
AcDbBlockTableRecord
  2
*U37
  0
BLOCK_RECORD
  5
F1C
100
AcDbSymbolTableRecord
100
AcDbBlockTableRecord
  2
*U38
  0
BLOCK_RECORD
  5
F52
100
AcDbSymbolTableRecord
100
AcDbBlockTableRecord
  2
*U39
  0
BLOCK_RECORD
  5
F8C
100
AcDbSymbolTableRecord
100
AcDbBlockTableRecord
  2
*U40
  0
BLOCK_RECORD
  5
FB0
100
AcDbSymbolTableRecord
100
AcDbBlockTableRecord
  2
*U41
  0
BLOCK_RECORD
  5
1006
100
AcDbSymbolTableRecord
100
AcDbBlockTableRecord
  2
*U42
  0
BLOCK_RECORD
  5
1015
100
AcDbSymbolTableRecord
100
AcDbBlockTableRecord
  2
*U43
  0
BLOCK_RECORD
  5
1037
100
AcDbSymbolTableRecord
100
AcDbBlockTableRecord
  2
M1-2SCREW
  0
BLOCK_RECORD
  5
1046
100
AcDbSymbolTableRecord
100
AcDbBlockTableRecord
  2
*U45
  0
BLOCK_RECORD
  5
10AF
100
AcDbSymbolTableRecord
100
AcDbBlockTableRecord
  2
*U46
  0
BLOCK_RECORD
  5
10BA
100
AcDbSymbolTableRecord
100
AcDbBlockTableRecord
  2
A$C22
  0
BLOCK_RECORD
  5
10CB
100
AcDbSymbolTableRecord
100
AcDbBlockTableRecord
  2
*U48
  0
BLOCK_RECORD
  5
10D6
100
AcDbSymbolTableRecord
100
AcDbBlockTableRecord
  2
A$C23
  0
ENDTAB
  0
ENDSEC
  0
SECTION
  2
BLOCKS
  0
BLOCK
  5
1B
100
AcDbEntity
  8
0
100
AcDbBlockBegin
  2
*MODEL_SPACE
 70
     0
 10
0.0
 20
0.0
 30
0.0
  3
*MODEL_SPACE
  1

  0
ENDBLK
  5
1C
100
AcDbEntity
  8
0
100
AcDbBlockEnd
  0
BLOCK
  5
18
100
AcDbEntity
 67
     1
  8
0
100
AcDbBlockBegin
  2
*PAPER_SPACE
 70
     0
 10
0.0
 20
0.0
 30
0.0
  3
*PAPER_SPACE
  1

  0
ENDBLK
  5
19
100
AcDbEntity
 67
     1
  8
0
100
AcDbBlockEnd
  0
BLOCK
  5
6C
100
AcDbEntity
  8
0
100
AcDbBlockBegin
  2
*U0
 70
     1
 10
0.0
 20
0.0
 30
0.0
  3
*U0
  1

  0
ENDBLK
  5
6D
100
AcDbEntity
  8
0
100
AcDbBlockEnd
  0
BLOCK
  5
E1
100
AcDbEntity
  8
0
100
AcDbBlockBegin
  2
C-BORDER
 70
     0
 10
0.0
 20
0.0
 30
0.0
  3
C-BORDER
  1

  0
LINE
  5
9F
100
AcDbEntity
  8
TEXT
100
AcDbLine
 10
0.5
 20
14.375
 30
0.0
 11
3.0625
 21
14.375
 31
0.0
  0
LINE
  5
A0
100
AcDbEntity
  8
TEXT
100
AcDbLine
 10
3.0625
 20
14.375
 30
0.0
 11
3.0625
 21
14.875
 31
0.0
  0
CIRCLE
  5
A1
100
AcDbEntity
  8
TEXT
100
AcDbCircle
 10
1.177871
 20
14.611461
 30
0.0
 40
0.1875
  0
CIRCLE
  5
A2
100
AcDbEntity
  8
TEXT
100
AcDbCircle
 10
1.177871
 20
14.611461
 30
0.0
 40
0.09375
  0
LINE
  5
A3
100
AcDbEntity
  8
TEXT
  6
CENTER
100
AcDbLine
 10
0.943951
 20
14.611461
 30
0.0
 11
2.396621
 21
14.611461
 31
0.0
  0
LINE
  5
A4
100
AcDbEntity
  8
TEXT
  6
CENTER
100
AcDbLine
 10
1.177871
 20
14.382779
 30
0.0
 11
1.177871
 21
14.850656
 31
0.0
  0
LINE
  5
A5
100
AcDbEntity
  8
TEXT
100
AcDbLine
 10
1.646621
 20
14.705211
 30
0.0
 11
2.131263
 21
14.798961
 31
0.0
  0
LINE
  5
A6
100
AcDbEntity
  8
TEXT
100
AcDbLine
 10
1.646621
 20
14.517711
 30
0.0
 11
2.131263
 21
14.423961
 31
0.0
  0
LINE
  5
A7
100
AcDbEntity
  8
TEXT
100
AcDbLine
 10
1.646621
 20
14.517711
 30
0.0
 11
1.646621
 21
14.705211
 31
0.0
  0
LINE
  5
A8
100
AcDbEntity
  8
TEXT
100
AcDbLine
 10
2.131263
 20
14.798961
 30
0.0
 11
2.131263
 21
14.423961
 31
0.0
  0
TEXT
  5
A9
100
AcDbEntity
  8
TEXT
100
AcDbText
 10
0.6875
 20
14.189828
 30
0.0
 40
0.1
  1
THIRD ANGLE PROJECTION
100
AcDbText
  0
LINE
  5
AA
100
AcDbEntity
  8
TEXT
100
AcDbLine
 10
3.0625
 20
14.375
 30
0.0
 11
3.0625
 21
14.125
 31
0.0
  0
LINE
  5
AB
100
AcDbEntity
  8
TEXT
100
AcDbLine
 10
3.0625
 20
14.125
 30
0.0
 11
0.5
 21
14.125
 31
0.0
  0
TEXT
  5
AC
100
AcDbEntity
  8
TEXT
100
AcDbText
 10
15.40792
 20
1.361505
 30
0.0
 40
0.065
  1
  %%P 0.5%%D
  7
ADESK2
100
AcDbText
  0
TEXT
  5
AD
100
AcDbEntity
  8
TEXT
100
AcDbText
 10
15.40792
 20
1.466743
 30
0.0
 40
0.065
  1
ANGULAR
  7
ADESK2
100
AcDbText
  0
TEXT
  5
AE
100
AcDbEntity
  8
TEXT
100
AcDbText
 10
14.61466
 20
1.153744
 30
0.0
 40
0.065
  1
DO NOT SCALE DRAWING
  7
ADESK2
 72
     1
 11
15.229065
 21
1.153744
 31
0.0
100
AcDbText
  0
TEXT
  5
AF
100
AcDbEntity
  8
TEXT
100
AcDbText
 10
14.544023
 20
1.256267
 30
0.0
 40
0.065
  1
.XXX %%P .005
  7
ADESK2
100
AcDbText
  0
TEXT
  5
B0
100
AcDbEntity
  8
TEXT
100
AcDbText
 10
14.544023
 20
1.361505
 30
0.0
 40
0.065
  1
.XX  %%P .05
  7
ADESK2
100
AcDbText
  0
TEXT
  5
B1
100
AcDbEntity
  8
TEXT
100
AcDbText
 10
14.544023
 20
1.466743
 30
0.0
 40
0.065
  1
DECIMALS
  7
ADESK2
100
AcDbText
  0
TEXT
  5
B2
100
AcDbEntity
  8
TEXT
100
AcDbText
 10
14.930374
 20
1.574613
 30
0.0
 40
0.065
  1
TOLERANCES
  7
ADESK2
 72
     1
 11
15.229065
 21
1.574613
 31
0.0
100
AcDbText
  0
TEXT
  5
B3
100
AcDbEntity
  8
TEXT
100
AcDbText
 10
14.532636
 20
1.679851
 30
0.0
 40
0.065
  1
DIMENSIONS ARE IN INCHES
  7
ADESK2
 72
     1
 11
15.229065
 21
1.679851
 31
0.0
100
AcDbText
  0
TEXT
  5
B4
100
AcDbEntity
  8
TEXT
100
AcDbText
 10
14.458351
 20
1.785089
 30
0.0
 40
0.065
  1
UNLESS OTHERWISE SPECIFIED:
  7
ADESK2
 72
     1
 11
15.229065
 21
1.785089
 31
0.0
100
AcDbText
  0
TEXT
  5
B5
100
AcDbEntity
  8
BORDER
100
AcDbText
 10
16.916608
 20
1.575566
 30
0.0
 40
0.15
  1
HIGH ENERGY PHYSICS
100
AcDbText
  0
LINE
  5
B6
100
AcDbEntity
  8
BORDER
100
AcDbLine
 10
0.5
 20
14.875
 30
0.0
 11
20.5
 21
14.875
 31
0.0
  0
TEXT
  5
B7
100
AcDbEntity
  8
TEXT
100
AcDbText
 10
16.680137
 20
0.665354
 30
0.0
 40
0.075
  1
DIRECTORY
100
AcDbText
  0
TEXT
  5
B8
100
AcDbEntity
  8
BORDER
100
AcDbText
 10
16.367704
 20
0.451962
 30
0.0
 40
0.15
  1
C
100
AcDbText
  0
LINE
  5
B9
100
AcDbEntity
  8
BORDER
100
AcDbLine
 10
0.5
 20
0.125
 30
0.0
 11
20.5
 21
0.125
 31
0.0
  0
LINE
  5
BA
100
AcDbEntity
  8
BORDER
100
AcDbLine
 10
0.5
 20
14.875
 30
0.0
 11
0.5
 21
0.125
 31
0.0
  0
LINE
  5
BB
100
AcDbEntity
  8
BORDER
100
AcDbLine
 10
20.5
 20
0.125
 30
0.0
 11
20.5
 21
14.875
 31
0.0
  0
LINE
  5
BC
100
AcDbEntity
  8
BORDER
100
AcDbLine
 10
14.228025
 20
2.324147
 30
0.0
 11
20.500862
 21
2.324147
 31
0.0
  0
TEXT
  5
BD
100
AcDbEntity
  8
BORDER
100
AcDbText
 10
14.407029
 20
2.049228
 30
0.0
 40
0.15
  1
UNIVERSITY OF CALIFORNIA @ SANTA BARBARA
100
AcDbText
  0
TEXT
  5
BE
100
AcDbEntity
  8
TEXT
100
AcDbText
 10
14.297375
 20
0.979964
 30
0.0
 40
0.065
  1
DRAWN
  7
ADESK2
100
AcDbText
  0
LINE
  5
BF
100
AcDbEntity
  8
BORDER
100
AcDbLine
 10
14.229065
 20
0.125
 30
0.0
 11
14.229065
 21
2.324147
 31
0.0
  0
LINE
  5
C0
100
AcDbEntity
  8
BORDER
100
AcDbLine
 10
14.229065
 20
1.901501
 30
0.0
 11
20.500862
 21
1.901501
 31
0.0
  0
LINE
  5
C1
100
AcDbEntity
  8
TEXT
100
AcDbLine
 10
14.229065
 20
0.466501
 30
0.0
 11
16.229065
 21
0.466501
 31
0.0
  0
LINE
  5
C2
100
AcDbEntity
  8
TEXT
100
AcDbLine
 10
14.229065
 20
0.781501
 30
0.0
 11
20.500862
 21
0.781501
 31
0.0
  0
LINE
  5
C3
100
AcDbEntity
  8
TEXT
100
AcDbLine
 10
16.229065
 20
0.401501
 30
0.0
 11
20.500862
 21
0.401501
 31
0.0
  0
LINE
  5
C4
100
AcDbEntity
  8
BORDER
100
AcDbLine
 10
16.229065
 20
1.401501
 30
0.0
 11
20.500862
 21
1.401501
 31
0.0
  0
LINE
  5
C5
100
AcDbEntity
  8
BORDER
100
AcDbLine
 10
16.229065
 20
0.125
 30
0.0
 11
16.229065
 21
1.901501
 31
0.0
  0
LINE
  5
C6
100
AcDbEntity
  8
TEXT
100
AcDbLine
 10
17.229065
 20
0.125
 30
0.0
 11
17.229065
 21
0.401501
 31
0.0
  0
LINE
  5
C7
100
AcDbEntity
  8
TEXT
100
AcDbLine
 10
18.729065
 20
0.125
 30
0.0
 11
18.729065
 21
0.401501
 31
0.0
  0
LINE
  5
C8
100
AcDbEntity
  8
TEXT
100
AcDbLine
 10
16.609065
 20
0.401501
 30
0.0
 11
16.609065
 21
0.781501
 31
0.0
  0
LINE
  5
C9
100
AcDbEntity
  8
TEXT
100
AcDbLine
 10
17.729065
 20
0.401501
 30
0.0
 11
17.729065
 21
0.781501
 31
0.0
  0
LINE
  5
CA
100
AcDbEntity
  8
TEXT
100
AcDbLine
 10
20.099065
 20
0.401501
 30
0.0
 11
20.099065
 21
0.781501
 31
0.0
  0
TEXT
  5
CB
100
AcDbEntity
  8
TEXT
100
AcDbText
 10
16.281365
 20
0.244001
 30
0.0
 40
0.065
  1
SCALE
  7
ADESK2
100
AcDbText
  0
TEXT
  5
CC
100
AcDbEntity
  8
TEXT
100
AcDbText
 10
18.781865
 20
0.244001
 30
0.0
 40
0.065
  1
SHEET
  7
ADESK2
100
AcDbText
  0
TEXT
  5
CD
100
AcDbEntity
  8
TEXT
100
AcDbText
 10
16.316965
 20
0.667401
 30
0.0
 40
0.065
  1
SIZE
  7
ADESK2
100
AcDbText
  0
TEXT
  5
CE
100
AcDbEntity
  8
TEXT
100
AcDbText
 10
17.800065
 20
0.667401
 30
0.0
 40
0.065
  1
DWG NO.
  7
ADESK2
100
AcDbText
  0
TEXT
  5
CF
100
AcDbEntity
  8
TEXT
100
AcDbText
 10
20.179565
 20
0.667401
 30
0.0
 40
0.065
  1
REV
  7
ADESK2
100
AcDbText
  0
LINE
  5
D0
100
AcDbEntity
  8
TEXT
100
AcDbLine
 10
15.445694
 20
14.518795
 30
0.0
 11
20.5
 21
14.518795
 31
0.0
  0
LINE
  5
D1
100
AcDbEntity
  8
TEXT
100
AcDbLine
 10
15.445694
 20
14.268795
 30
0.0
 11
20.5
 21
14.268795
 31
0.0
  0
LINE
  5
D2
100
AcDbEntity
  8
TEXT
100
AcDbLine
 10
15.445694
 20
14.828859
 30
0.0
 11
15.445694
 21
14.268795
 31
0.0
  0
LINE
  5
D3
100
AcDbEntity
  8
TEXT
100
AcDbLine
 10
15.835946
 20
14.268795
 30
0.0
 11
15.835946
 21
14.518795
 31
0.0
  0
LINE
  5
D4
100
AcDbEntity
  8
TEXT
100
AcDbLine
 10
18.575946
 20
14.268795
 30
0.0
 11
18.575946
 21
14.518795
 31
0.0
  0
LINE
  5
D5
100
AcDbEntity
  8
TEXT
100
AcDbLine
 10
19.455946
 20
14.268795
 30
0.0
 11
19.455946
 21
14.518795
 31
0.0
  0
TEXT
  5
D6
100
AcDbEntity
  8
TEXT
100
AcDbText
 10
17.666146
 20
14.601295
 30
0.0
 40
0.065
  1
REVISIONS
  7
ADESK2
100
AcDbText
  0
TEXT
  5
D7
100
AcDbEntity
  8
TEXT
100
AcDbText
 10
15.536046
 20
14.359095
 30
0.0
 40
0.065
  1
REV
  7
ADESK2
100
AcDbText
  0
TEXT
  5
D8
100
AcDbEntity
  8
TEXT
100
AcDbText
 10
16.837946
 20
14.359095
 30
0.0
 40
0.065
  1
DESCRIPTION
  7
ADESK2
100
AcDbText
  0
TEXT
  5
D9
100
AcDbEntity
  8
TEXT
100
AcDbText
 10
18.903646
 20
14.359095
 30
0.0
 40
0.065
  1
DATE
  7
ADESK2
100
AcDbText
  0
TEXT
  5
DA
100
AcDbEntity
  8
TEXT
100
AcDbText
 10
19.697346
 20
14.359095
 30
0.0
 40
0.065
  1
APPROVED
  7
ADESK2
100
AcDbText
  0
LINE
  5
DB
100
AcDbEntity
  8
TEXT
100
AcDbLine
 10
14.229065
 20
1.091501
 30
0.0
 11
16.229065
 21
1.091501
 31
0.0
  0
TEXT
  5
DC
100
AcDbEntity
  8
TEXT
100
AcDbText
 10
14.309065
 20
0.671501
 30
0.0
 40
0.065
  1
CHECKED
  7
ADESK2
100
AcDbText
  0
TEXT
  5
DD
100
AcDbEntity
  8
TEXT
100
AcDbText
 10
14.309065
 20
0.356501
 30
0.0
 40
0.065
  1
DESIGN
  7
ADESK2
100
AcDbText
  0
LINE
  5
DE
100
AcDbEntity
  8
TEXT
100
AcDbLine
 10
15.729049
 20
1.091501
 30
0.0
 11
15.729049
 21
0.125
 31
0.0
  0
TEXT
  5
DF
100
AcDbEntity
  8
TEXT
100
AcDbText
 10
15.852468
 20
0.974951
 30
0.0
 40
0.065
  1
DATE
  7
ADESK2
100
AcDbText
  0
TEXT
  5
E0
100
AcDbEntity
  8
TEXT
100
AcDbText
 10
19.612036
 20
0.244377
 30
0.0
 40
0.065
  1
OF
  7
ADESK2
100
AcDbText
  0
ENDBLK
  5
E2
100
AcDbEntity
  8
0
100
AcDbBlockEnd
  0
BLOCK
  5
11E
100
AcDbEntity
  8
HDI
100
AcDbBlockBegin
  2
A$C4323
 70
     0
 10
0.0
 20
0.0
 30
0.0
  3
A$C4323
  1

  0
LINE
  5
110
100
AcDbEntity
  8
HDI_AIN_12
100
AcDbLine
 10
41.334507
 20
4.862596
 30
0.0
 11
0.134507
 21
4.862596
 31
0.0
  0
LINE
  5
111
100
AcDbEntity
  8
HDI_AIN_12
100
AcDbLine
 10
41.334507
 20
3.662596
 30
0.0
 11
0.134507
 21
3.662596
 31
0.0
  0
LINE
  5
112
100
AcDbEntity
  8
STAYCLEAR
100
AcDbLine
 10
41.334507
 20
0.112596
 30
0.0
 11
34.334507
 21
0.112596
 31
0.0
  0
LINE
  5
113
100
AcDbEntity
  8
STAYCLEAR
100
AcDbLine
 10
34.334507
 20
1.362596
 30
0.0
 11
0.134507
 21
1.362596
 31
0.0
  0
LINE
  5
114
100
AcDbEntity
  8
STAYCLEAR
100
AcDbLine
 10
34.334507
 20
7.162596
 30
0.0
 11
0.134507
 21
7.162596
 31
0.0
  0
LINE
  5
115
100
AcDbEntity
  8
HDI_AIN_12
100
AcDbLine
 10
0.134507
 20
4.862596
 30
0.0
 11
0.134507
 21
3.662596
 31
0.0
  0
LINE
  5
116
100
AcDbEntity
  8
STAYCLEAR
100
AcDbLine
 10
0.134507
 20
1.362596
 30
0.0
 11
0.134507
 21
3.419519
 31
0.0
  0
LINE
  5
117
100
AcDbEntity
  8
STAYCLEAR
100
AcDbLine
 10
0.134507
 20
7.162596
 30
0.0
 11
0.134507
 21
5.105674
 31
0.0
  0
LINE
  5
118
100
AcDbEntity
  8
STAYCLEAR
100
AcDbLine
 10
34.334507
 20
0.112596
 30
0.0
 11
34.334507
 21
1.362596
 31
0.0
  0
LINE
  5
119
100
AcDbEntity
  8
STAYCLEAR
100
AcDbLine
 10
34.334507
 20
8.412596
 30
0.0
 11
34.334507
 21
7.162596
 31
0.0
  0
LINE
  5
11A
100
AcDbEntity
  8
STAYCLEAR
100
AcDbLine
 10
41.334507
 20
0.112596
 30
0.0
 11
41.334507
 21
3.374224
 31
0.0
  0
LINE
  5
11B
100
AcDbEntity
  8
HDI_AIN_12
100
AcDbLine
 10
41.334507
 20
4.862596
 30
0.0
 11
41.334507
 21
3.662596
 31
0.0
  0
LINE
  5
11C
100
AcDbEntity
  8
STAYCLEAR
100
AcDbLine
 10
41.334507
 20
8.412596
 30
0.0
 11
41.334507
 21
5.105674
 31
0.0
  0
LINE
  5
11D
100
AcDbEntity
  8
STAYCLEAR
100
AcDbLine
 10
41.334507
 20
8.412596
 30
0.0
 11
34.334507
 21
8.412596
 31
0.0
  0
ENDBLK
  5
11F
100
AcDbEntity
  8
HDI
100
AcDbBlockEnd
  0
BLOCK
  5
130
100
AcDbEntity
  8
0
100
AcDbBlockBegin
  2
*X3
 70
    65
 10
0.0
 20
0.0
 30
0.0
  3
*X3
  1

  0
LINE
  5
121
100
AcDbEntity
  8
0
 62
     0
100
AcDbLine
 10
268.431599
 20
187.114319
 30
0.0
 11
273.38944
 21
192.07216
 31
0.0
  0
LINE
  5
122
100
AcDbEntity
  8
0
 62
     0
100
AcDbLine
 10
274.38944
 20
193.07216
 30
0.0
 11
275.815599
 21
194.498319
 31
0.0
  0
LINE
  5
123
100
AcDbEntity
  8
0
 62
     0
100
AcDbLine
 10
268.18944
 20
188.639927
 30
0.0
 11
273.38944
 21
193.839927
 31
0.0
  0
LINE
  5
124
100
AcDbEntity
  8
0
 62
     0
100
AcDbLine
 10
274.38944
 20
194.839927
 30
0.0
 11
274.88944
 21
195.339927
 31
0.0
  0
LINE
  5
125
100
AcDbEntity
  8
0
 62
     0
100
AcDbLine
 10
268.18944
 20
190.407694
 30
0.0
 11
272.280065
 21
194.498319
 31
0.0
  0
LINE
  5
126
100
AcDbEntity
  8
0
 62
     0
100
AcDbLine
 10
272.88944
 20
195.107694
 30
0.0
 11
273.280065
 21
195.498319
 31
0.0
  0
LINE
  5
127
100
AcDbEntity
  8
0
 62
     0
100
AcDbLine
 10
268.18944
 20
192.175461
 30
0.0
 11
270.512298
 21
194.498319
 31
0.0
  0
LINE
  5
128
100
AcDbEntity
  8
0
 62
     0
100
AcDbLine
 10
268.18944
 20
193.943228
 30
0.0
 11
268.744531
 21
194.498319
 31
0.0
  0
LINE
  5
129
100
AcDbEntity
  8
0
 62
     0
100
AcDbLine
 10
270.199366
 20
187.114319
 30
0.0
 11
273.38944
 21
190.304393
 31
0.0
  0
LINE
  5
12A
100
AcDbEntity
  8
0
 62
     0
100
AcDbLine
 10
274.38944
 20
191.304393
 30
0.0
 11
277.583366
 21
194.498319
 31
0.0
  0
LINE
  5
12B
100
AcDbEntity
  8
0
 62
     0
100
AcDbLine
 10
271.967133
 20
187.114319
 30
0.0
 11
273.38944
 21
188.536626
 31
0.0
  0
LINE
  5
12C
100
AcDbEntity
  8
0
 62
     0
100
AcDbLine
 10
274.38944
 20
189.536626
 30
0.0
 11
278.08944
 21
193.236626
 31
0.0
  0
LINE
  5
12D
100
AcDbEntity
  8
0
 62
     0
100
AcDbLine
 10
274.38944
 20
187.76886
 30
0.0
 11
278.08944
 21
191.46886
 31
0.0
  0
LINE
  5
12E
100
AcDbEntity
  8
0
 62
     0
100
AcDbLine
 10
275.502667
 20
187.114319
 30
0.0
 11
278.08944
 21
189.701093
 31
0.0
  0
LINE
  5
12F
100
AcDbEntity
  8
0
 62
     0
100
AcDbLine
 10
277.270434
 20
187.114319
 30
0.0
 11
278.08944
 21
187.933326
 31
0.0
  0
ENDBLK
  5
131
100
AcDbEntity
  8
0
100
AcDbBlockEnd
  0
BLOCK
  5
146
100
AcDbEntity
  8
SPACER
100
AcDbBlockBegin
  2
A$C40C5
 70
     0
 10
0.0
 20
0.0
 30
0.0
  3
A$C40C5
  1

  0
LINE
  5
133
100
AcDbEntity
  8
SECTION
100
AcDbLine
 10
9.027562
 20
12.488838
 30
0.0
 11
8.027562
 21
12.488838
 31
0.0
  0
POLYLINE
  5
134
100
AcDbEntity
  8
SECTION
100
AcDb2dPolyline
 66
     1
 10
0.0
 20
0.0
 30
0.0
 70
     1
1001
ACAD
1000
ASC_BOUNDS
1002
{
1070
    19
1005
13C
1002
}
  0
VERTEX
  5
135
100
AcDbEntity
  8
SECTION
100
AcDbVertex
100
AcDb2dVertex
 10
9.527562
 20
12.488838
 30
0.0
  0
VERTEX
  5
136
100
AcDbEntity
  8
SECTION
100
AcDbVertex
100
AcDb2dVertex
 10
9.027562
 20
12.488838
 30
0.0
  0
VERTEX
  5
137
100
AcDbEntity
  8
SECTION
100
AcDbVertex
100
AcDb2dVertex
 10
9.027562
 20
4.104838
 30
0.0
  0
VERTEX
  5
138
100
AcDbEntity
  8
SECTION
100
AcDbVertex
100
AcDb2dVertex
 10
12.727562
 20
4.104838
 30
0.0
  0
VERTEX
  5
139
100
AcDbEntity
  8
SECTION
100
AcDbVertex
100
AcDb2dVertex
 10
12.727562
 20
11.488838
 30
0.0
1001
ACAD
1000
ASC_BOUNDS
1002
{
1070
    19
1002
}
  0
VERTEX
  5
13A
100
AcDbEntity
  8
SECTION
100
AcDbVertex
100
AcDb2dVertex
 10
9.527562
 20
11.488838
 30
0.0
1001
ACAD
1000
ASC_BOUNDS
1002
{
1070
    19
1002
}
  0
SEQEND
  5
13B
100
AcDbEntity
  8
SECTION
1001
ACAD
1000
ASC_BOUNDS
1002
{
1070
    19
1002
}
  0
INSERT
  5
13C
100
AcDbEntity
  8
SECTION
100
AcDbBlockReference
  2
*X3
 10
-265.361878
 20
-183.009481
 30
0.0
1001
ACAD
1000
HATCH
1002
{
1070
    19
1000
ANSI31
1040
10.0
1040
0.0
1000
ASC_BOUNDS
1070
     1
1070
     2
1070
     2
1005
134
1005
13D
1000
ASC_SEEDPOINT
1011
-265.361878
1021
-183.009481
1031
0.0
1002
}
  0
POLYLINE
  5
13D
100
AcDbEntity
  8
SECTION
100
AcDb2dPolyline
 66
     1
 10
0.0
 20
0.0
 30
0.0
 70
     1
1001
ACAD
1000
ASC_BOUNDS
1002
{
1070
    19
1005
13C
1002
}
  0
VERTEX
  5
13E
100
AcDbEntity
  8
SECTION
100
AcDbVertex
100
AcDb2dVertex
 10
8.027562
 20
4.104838
 30
0.0
  0
VERTEX
  5
13F
100
AcDbEntity
  8
SECTION
100
AcDbVertex
100
AcDb2dVertex
 10
8.027562
 20
12.488838
 30
0.0
  0
VERTEX
  5
140
100
AcDbEntity
  8
SECTION
100
AcDbVertex
100
AcDb2dVertex
 10
7.527562
 20
12.488838
 30
0.0
  0
VERTEX
  5
141
100
AcDbEntity
  8
SECTION
100
AcDbVertex
100
AcDb2dVertex
 10
7.527562
 20
11.488838
 30
0.0
1001
ACAD
1000
ASC_BOUNDS
1002
{
1070
    19
1002
}
  0
VERTEX
  5
142
100
AcDbEntity
  8
SECTION
100
AcDbVertex
100
AcDb2dVertex
 10
2.827562
 20
11.488838
 30
0.0
1001
ACAD
1000
ASC_BOUNDS
1002
{
1070
    19
1002
}
  0
VERTEX
  5
143
100
AcDbEntity
  8
SECTION
100
AcDbVertex
100
AcDb2dVertex
 10
2.827562
 20
4.104838
 30
0.0
  0
SEQEND
  5
144
100
AcDbEntity
  8
SECTION
1001
ACAD
1000
ASC_BOUNDS
1002
{
1070
    19
1002
}
  0
LINE
  5
145
100
AcDbEntity
  8
SECTION
100
AcDbLine
 10
8.027562
 20
4.104838
 30
0.0
 11
9.027562
 21
4.104838
 31
0.0
  0
ENDBLK
  5
147
100
AcDbEntity
  8
SPACER
100
AcDbBlockEnd
  0
BLOCK
  5
156
100
AcDbEntity
  8
0
100
AcDbBlockBegin
  2
*X5
 70
    65
 10
0.0
 20
0.0
 30
0.0
  3
*X5
  1

  0
LINE
  5
149
100
AcDbEntity
  8
0
 62
     0
100
AcDbLine
 10
262.600756
 20
186.586777
 30
0.0
 11
266.702323
 21
190.688344
 31
0.0
  0
LINE
  5
14A
100
AcDbEntity
  8
0
 62
     0
100
AcDbLine
 10
267.702323
 20
191.688344
 30
0.0
 11
269.984756
 21
193.970777
 31
0.0
  0
LINE
  5
14B
100
AcDbEntity
  8
0
 62
     0
100
AcDbLine
 10
261.502323
 20
187.256111
 30
0.0
 11
266.702323
 21
192.456111
 31
0.0
  0
LINE
  5
14C
100
AcDbEntity
  8
0
 62
     0
100
AcDbLine
 10
267.702323
 20
193.456111
 30
0.0
 11
268.216989
 21
193.970777
 31
0.0
  0
LINE
  5
14D
100
AcDbEntity
  8
0
 62
     0
100
AcDbLine
 10
261.502323
 20
189.023878
 30
0.0
 11
266.449222
 21
193.970777
 31
0.0
  0
LINE
  5
14E
100
AcDbEntity
  8
0
 62
     0
100
AcDbLine
 10
261.502323
 20
190.791645
 30
0.0
 11
264.681455
 21
193.970777
 31
0.0
  0
LINE
  5
14F
100
AcDbEntity
  8
0
 62
     0
100
AcDbLine
 10
261.502323
 20
192.559412
 30
0.0
 11
262.913688
 21
193.970777
 31
0.0
  0
LINE
  5
150
100
AcDbEntity
  8
0
 62
     0
100
AcDbLine
 10
264.368523
 20
186.586777
 30
0.0
 11
266.702323
 21
188.920577
 31
0.0
  0
LINE
  5
151
100
AcDbEntity
  8
0
 62
     0
100
AcDbLine
 10
267.702323
 20
189.920577
 30
0.0
 11
271.402323
 21
193.620577
 31
0.0
  0
LINE
  5
152
100
AcDbEntity
  8
0
 62
     0
100
AcDbLine
 10
266.13629
 20
186.586777
 30
0.0
 11
266.702323
 21
187.15281
 31
0.0
  0
LINE
  5
153
100
AcDbEntity
  8
0
 62
     0
100
AcDbLine
 10
267.702323
 20
188.15281
 30
0.0
 11
271.402323
 21
191.85281
 31
0.0
  0
LINE
  5
154
100
AcDbEntity
  8
0
 62
     0
100
AcDbLine
 10
267.904057
 20
186.586777
 30
0.0
 11
271.402323
 21
190.085044
 31
0.0
  0
LINE
  5
155
100
AcDbEntity
  8
0
 62
     0
100
AcDbLine
 10
269.671824
 20
186.586777
 30
0.0
 11
271.402323
 21
188.317277
 31
0.0
  0
ENDBLK
  5
157
100
AcDbEntity
  8
0
100
AcDbBlockEnd
  0
BLOCK
  5
16C
100
AcDbEntity
  8
SPACER
100
AcDbBlockBegin
  2
A$C31
 70
     0
 10
0.0
 20
0.0
 30
0.0
  3
A$C31
  1

  0
LINE
  5
159
100
AcDbEntity
  8
SECTION
100
AcDbLine
 10
5.20367
 20
8.520392
 30
0.0
 11
4.70367
 21
8.520392
 31
0.0
1001
ACAD
1000
ASC_BOUNDS
1002
{
1070
    19
1002
}
  0
LINE
  5
15A
100
AcDbEntity
  8
SECTION
100
AcDbLine
 10
5.20367
 20
8.520392
 30
0.0
 11
6.20367
 21
8.520392
 31
0.0
  0
LINE
  5
15B
100
AcDbEntity
  8
SECTION
100
AcDbLine
 10
6.70367
 20
8.520392
 30
0.0
 11
6.20367
 21
8.520392
 31
0.0
1001
ACAD
1000
ASC_BOUNDS
1002
{
1070
    19
1002
}
  0
LINE
  5
15C
100
AcDbEntity
  8
SECTION
100
AcDbLine
 10
6.70367
 20
7.393392
 30
0.0
 11
6.70367
 21
8.520392
 31
0.0
1001
ACAD
1000
ASC_BOUNDS
1002
{
1070
    19
1002
}
  0
LINE
  5
15D
100
AcDbEntity
  8
SECTION
100
AcDbLine
 10
6.20367
 20
7.393392
 30
0.0
 11
5.20367
 21
7.393392
 31
0.0
  0
POLYLINE
  5
15E
100
AcDbEntity
  8
SECTION
100
AcDb2dPolyline
 66
     1
 10
0.0
 20
0.0
 30
0.0
 70
     1
1001
ACAD
1000
ASC_BOUNDS
1002
{
1070
    19
1005
164
1002
}
  0
VERTEX
  5
15F
100
AcDbEntity
  8
SECTION
100
AcDbVertex
100
AcDb2dVertex
 10
9.90367
 20
0.009392
 30
0.0
1001
ACAD
1000
ASC_BOUNDS
1002
{
1070
    19
1002
}
  0
VERTEX
  5
160
100
AcDbEntity
  8
SECTION
100
AcDbVertex
100
AcDb2dVertex
 10
9.90367
 20
7.393392
 30
0.0
1001
ACAD
1000
ASC_BOUNDS
1002
{
1070
    19
1002
}
  0
VERTEX
  5
161
100
AcDbEntity
  8
SECTION
100
AcDbVertex
100
AcDb2dVertex
 10
6.20367
 20
7.393392
 30
0.0
  0
VERTEX
  5
162
100
AcDbEntity
  8
SECTION
100
AcDbVertex
100
AcDb2dVertex
 10
6.20367
 20
0.009392
 30
0.0
  0
SEQEND
  5
163
100
AcDbEntity
  8
SECTION
1001
ACAD
1000
ASC_BOUNDS
1002
{
1070
    19
1002
}
  0
INSERT
  5
164
100
AcDbEntity
  8
SECTION
100
AcDbBlockReference
  2
*X5
 10
-261.498653
 20
-186.577385
 30
0.0
1001
ACAD
1000
HATCH
1002
{
1070
    19
1000
ANSI31
1040
10.0
1040
0.0
1000
ASC_BOUNDS
1070
     1
1070
     2
1070
     2
1005
15E
1005
165
1000
ASC_SEEDPOINT
1011
-261.498653
1021
-186.577385
1031
0.0
1002
}
  0
POLYLINE
  5
165
100
AcDbEntity
  8
SECTION
100
AcDb2dPolyline
 66
     1
 10
0.0
 20
0.0
 30
0.0
 70
     1
1001
ACAD
1000
ASC_BOUNDS
1002
{
1070
    19
1005
164
1002
}
  0
VERTEX
  5
166
100
AcDbEntity
  8
SECTION
100
AcDbVertex
100
AcDb2dVertex
 10
0.00367
 20
0.009392
 30
0.0
1001
ACAD
1000
ASC_BOUNDS
1002
{
1070
    19
1002
}
  0
VERTEX
  5
167
100
AcDbEntity
  8
SECTION
100
AcDbVertex
100
AcDb2dVertex
 10
5.20367
 20
0.009392
 30
0.0
1001
ACAD
1000
ASC_BOUNDS
1002
{
1070
    19
1002
}
  0
VERTEX
  5
168
100
AcDbEntity
  8
SECTION
100
AcDbVertex
100
AcDb2dVertex
 10
5.20367
 20
7.393392
 30
0.0
  0
VERTEX
  5
169
100
AcDbEntity
  8
SECTION
100
AcDbVertex
100
AcDb2dVertex
 10
0.00367
 20
7.393392
 30
0.0
  0
SEQEND
  5
16A
100
AcDbEntity
  8
SECTION
1001
ACAD
1000
ASC_BOUNDS
1002
{
1070
    19
1002
}
  0
LINE
  5
16B
100
AcDbEntity
  8
SECTION
100
AcDbLine
 10
4.70367
 20
8.520392
 30
0.0
 11
4.70367
 21
7.393392
 31
0.0
1001
ACAD
1000
ASC_BOUNDS
1002
{
1070
    19
1002
}
  0
ENDBLK
  5
16D
100
AcDbEntity
  8
SPACER
100
AcDbBlockEnd
  0
BLOCK
  5
1C8
100
AcDbEntity
  8
BEAMS-B
100
AcDbBlockBegin
  2
A$C3B8
 70
     0
 10
0.0
 20
0.0
 30
0.0
  3
A$C3B8
  1

  0
ARC
  5
1AC
100
AcDbEntity
  8
KEVLAR
100
AcDbCircle
 10
15.801821
 20
14.037248
 30
0.0
 40
1.19125
100
AcDbArc
 50
90.0
 51
270.0
  0
ARC
  5
1AD
100
AcDbEntity
  8
KEVLAR
100
AcDbCircle
 10
15.954221
 20
14.037248
 30
0.0
 40
1.19125
100
AcDbArc
 50
270.0
 51
90.0
  0
LINE
  5
1AE
100
AcDbEntity
  8
KEVLAR
100
AcDbLine
 10
15.954221
 20
15.228498
 30
0.0
 11
15.801821
 21
15.228498
 31
0.0
  0
LINE
  5
1AF
100
AcDbEntity
  8
KEVLAR
100
AcDbLine
 10
15.954221
 20
12.845998
 30
0.0
 11
15.801821
 21
12.845998
 31
0.0
  0
LINE
  5
1B0
100
AcDbEntity
  8
KEVLAR
100
AcDbLine
 10
56.682521
 20
5.541598
 30
0.0
 11
56.530121
 21
5.541598
 31
0.0
  0
LINE
  5
1B1
100
AcDbEntity
  8
KEVLAR
100
AcDbLine
 10
56.682521
 20
7.924098
 30
0.0
 11
56.530121
 21
7.924098
 31
0.0
  0
ARC
  5
1B2
100
AcDbEntity
  8
KEVLAR
100
AcDbCircle
 10
56.682521
 20
6.732848
 30
0.0
 40
1.19125
100
AcDbArc
 50
270.0
 51
90.0
  0
ARC
  5
1B3
100
AcDbEntity
  8
KEVLAR
100
AcDbCircle
 10
56.530121
 20
6.732848
 30
0.0
 40
1.19125
100
AcDbArc
 50
90.0
 51
270.0
  0
CIRCLE
  5
1B4
100
AcDbEntity
  8
KEVLAR
100
AcDbCircle
 10
224.630676
 20
6.732908
 30
0.0
 40
1.19125
  0
CIRCLE
  5
1B5
100
AcDbEntity
  8
KEVLAR
100
AcDbCircle
 10
260.629476
 20
14.037308
 30
0.0
 40
1.19125
  0
LINE
  5
1B6
100
AcDbEntity
  8
KEVLAR
100
AcDbLine
 10
189.582914
 20
0.047557
 30
0.0
 11
222.020414
 21
0.047557
 31
0.0
1001
ACAD
1000
ASC_BOUNDS
1002
{
1070
    19
1005
0
1005
0
1002
}
  0
ARC
  5
1B7
100
AcDbEntity
  8
KEVLAR
100
AcDbCircle
 10
187.582914
 20
0.047557
 30
0.0
 40
2.0
100
AcDbArc
 50
0.0
 51
90.0
1001
ACAD
1000
ASC_BOUNDS
1002
{
1070
    19
1002
}
  0
ARC
  5
1B8
100
AcDbEntity
  8
KEVLAR
100
AcDbCircle
 10
183.582914
 20
0.047557
 30
0.0
 40
2.0
100
AcDbArc
 50
90.0
 51
180.0
1001
ACAD
1000
ASC_BOUNDS
1002
{
1070
    19
1002
}
  0
LINE
  5
1B9
100
AcDbEntity
  8
KEVLAR
100
AcDbLine
 10
183.582914
 20
2.047557
 30
0.0
 11
187.582914
 21
2.047557
 31
0.0
1001
ACAD
1000
ASC_BOUNDS
1002
{
1070
    19
1002
}
  0
LINE
  5
1BA
100
AcDbEntity
  8
KEVLAR
100
AcDbLine
 10
222.020414
 20
0.047557
 30
0.0
 11
242.804876
 21
10.923508
 31
0.0
  0
ARC
  5
1BB
100
AcDbEntity
  8
KEVLAR
100
AcDbCircle
 10
274.504876
 20
14.38908
 30
0.0
 40
2.0
100
AcDbArc
 50
0.0
 51
90.0
1001
ACAD
1000
ASC_BOUNDS
1002
{
1070
    19
1002
}
  0
ARC
  5
1BC
100
AcDbEntity
  8
KEVLAR
100
AcDbCircle
 10
2.003121
 20
14.38908
 30
0.0
 40
2.0
100
AcDbArc
 50
90.0
 51
180.0
1001
ACAD
1000
ASC_BOUNDS
1002
{
1070
    19
1002
}
  0
LINE
  5
1BD
100
AcDbEntity
  8
KEVLAR
100
AcDbLine
 10
39.357755
 20
10.923507
 30
0.0
 11
58.195414
 21
0.047557
 31
0.0
1001
ACAD
1000
ASC_BOUNDS
1002
{
1070
    19
1002
}
  0
ARC
  5
1BE
100
AcDbEntity
  8
KEVLAR
100
AcDbCircle
 10
96.632914
 20
0.047557
 30
0.0
 40
2.0
100
AcDbArc
 50
0.0
 51
90.0
1001
ACAD
1000
ASC_BOUNDS
1002
{
1070
    19
1002
}
  0
ARC
  5
1BF
100
AcDbEntity
  8
KEVLAR
100
AcDbCircle
 10
92.632914
 20
0.047557
 30
0.0
 40
2.0
100
AcDbArc
 50
90.0
 51
180.0
1001
ACAD
1000
ASC_BOUNDS
1002
{
1070
    19
1002
}
  0
LINE
  5
1C0
100
AcDbEntity
  8
KEVLAR
100
AcDbLine
 10
98.632914
 20
0.047557
 30
0.0
 11
181.582914
 21
0.047557
 31
0.0
1001
ACAD
1000
ASC_BOUNDS
1002
{
1070
    19
1005
0
1005
0
1002
}
  0
LINE
  5
1C1
100
AcDbEntity
  8
KEVLAR
100
AcDbLine
 10
92.632914
 20
2.047557
 30
0.0
 11
96.632914
 21
2.047557
 31
0.0
1001
ACAD
1000
ASC_BOUNDS
1002
{
1070
    19
1002
}
  0
LINE
  5
1C2
100
AcDbEntity
  8
KEVLAR
100
AcDbLine
 10
276.504876
 20
10.923508
 30
0.0
 11
242.804876
 21
10.923508
 31
0.0
1001
ACAD
1000
ASC_BOUNDS
1002
{
1070
    19
1002
}
  0
LINE
  5
1C3
100
AcDbEntity
  8
KEVLAR
100
AcDbLine
 10
58.195414
 20
0.047557
 30
0.0
 11
90.632914
 21
0.047557
 31
0.0
1001
ACAD
1000
ASC_BOUNDS
1002
{
1070
    19
1002
}
  0
LINE
  5
1C4
100
AcDbEntity
  8
KEVLAR
100
AcDbLine
 10
276.504876
 20
10.923508
 30
0.0
 11
276.504876
 21
14.38908
 31
0.0
1001
ACAD
1000
ASC_BOUNDS
1002
{
1070
    19
1002
}
  0
LINE
  5
1C5
100
AcDbEntity
  8
KEVLAR
100
AcDbLine
 10
0.003121
 20
10.923548
 30
0.0
 11
39.357755
 21
10.923507
 31
0.0
1001
ACAD
1000
ASC_BOUNDS
1002
{
1070
    19
1002
}
  0
LINE
  5
1C6
100
AcDbEntity
  8
KEVLAR
100
AcDbLine
 10
2.003121
 20
16.38908
 30
0.0
 11
274.504876
 21
16.38908
 31
0.0
1001
ACAD
1000
ASC_BOUNDS
1002
{
1070
    19
1002
}
  0
LINE
  5
1C7
100
AcDbEntity
  8
KEVLAR
100
AcDbLine
 10
0.003121
 20
10.923548
 30
0.0
 11
0.003121
 21
14.38908
 31
0.0
1001
ACAD
1000
ASC_BOUNDS
1002
{
1070
    19
1002
}
  0
ENDBLK
  5
1C9
100
AcDbEntity
  8
BEAMS-B
100
AcDbBlockEnd
  0
BLOCK
  5
35E
100
AcDbEntity
  8
0
100
AcDbBlockBegin
  2
*X8
 70
    65
 10
0.0
 20
0.0
 30
0.0
  3
*X8
  1

  0
LINE
  5
354
100
AcDbEntity
  8
0
 62
     0
100
AcDbLine
 10
292.270509
 20
223.553321
 30
-40.544635
 11
292.378164
 21
223.660976
 31
-40.544635
  0
LINE
  5
355
100
AcDbEntity
  8
0
 62
     0
100
AcDbLine
 10
293.195109
 20
224.477921
 30
-40.544635
 11
294.970109
 21
226.252921
 31
-40.544635
  0
LINE
  5
356
100
AcDbEntity
  8
0
 62
     0
100
AcDbLine
 10
291.878164
 20
224.04486
 30
-40.544635
 11
294.086225
 21
226.252921
 31
-40.544635
  0
LINE
  5
357
100
AcDbEntity
  8
0
 62
     0
100
AcDbLine
 10
291.878164
 20
224.928743
 30
-40.544635
 11
293.202342
 21
226.252921
 31
-40.544635
  0
LINE
  5
358
100
AcDbEntity
  8
0
 62
     0
100
AcDbLine
 10
291.878164
 20
225.812627
 30
-40.544635
 11
292.318458
 21
226.252921
 31
-40.544635
  0
LINE
  5
359
100
AcDbEntity
  8
0
 62
     0
100
AcDbLine
 10
294.078992
 20
224.477921
 30
-40.544635
 11
295.853992
 21
226.252921
 31
-40.544635
  0
LINE
  5
35A
100
AcDbEntity
  8
0
 62
     0
100
AcDbLine
 10
294.378164
 20
223.893209
 30
-40.544635
 11
296.737875
 21
226.252921
 31
-40.544635
  0
LINE
  5
35B
100
AcDbEntity
  8
0
 62
     0
100
AcDbLine
 10
294.922159
 20
223.553321
 30
-40.544635
 11
296.078164
 21
224.709326
 31
-40.544635
  0
LINE
  5
35C
100
AcDbEntity
  8
0
 62
     0
100
AcDbLine
 10
296.746759
 20
225.377921
 30
-40.544635
 11
296.785048
 21
225.41621
 31
-40.544635
  0
LINE
  5
35D
100
AcDbEntity
  8
0
 62
     0
100
AcDbLine
 10
295.806042
 20
223.553321
 30
-40.544635
 11
296.078164
 21
223.825442
 31
-40.544635
  0
ENDBLK
  5
35F
100
AcDbEntity
  8
0
100
AcDbBlockEnd
  0
BLOCK
  5
368
100
AcDbEntity
  8
0
100
AcDbBlockBegin
  2
*X9
 70
    65
 10
0.0
 20
0.0
 30
0.0
  3
*X9
  1

  0
LINE
  5
361
100
AcDbEntity
  8
0
 62
     0
100
AcDbLine
 10
299.078164
 20
224.173792
 30
-40.544635
 11
301.157293
 21
226.252921
 31
-40.544635
  0
LINE
  5
362
100
AcDbEntity
  8
0
 62
     0
100
AcDbLine
 10
299.078164
 20
225.057675
 30
-40.544635
 11
300.273409
 21
226.252921
 31
-40.544635
  0
LINE
  5
363
100
AcDbEntity
  8
0
 62
     0
100
AcDbLine
 10
298.514526
 20
225.377921
 30
-40.544635
 11
299.389526
 21
226.252921
 31
-40.544635
  0
LINE
  5
364
100
AcDbEntity
  8
0
 62
     0
100
AcDbLine
 10
298.412805
 20
226.160084
 30
-40.544635
 11
298.505642
 21
226.252921
 31
-40.544635
  0
LINE
  5
365
100
AcDbEntity
  8
0
 62
     0
100
AcDbLine
 10
299.341576
 20
223.553321
 30
-40.544635
 11
301.778164
 21
225.989908
 31
-40.544635
  0
LINE
  5
366
100
AcDbEntity
  8
0
 62
     0
100
AcDbLine
 10
300.22546
 20
223.553321
 30
-40.544635
 11
301.778164
 21
225.106025
 31
-40.544635
  0
LINE
  5
367
100
AcDbEntity
  8
0
 62
     0
100
AcDbLine
 10
301.109343
 20
223.553321
 30
-40.544635
 11
301.778164
 21
224.222141
 31
-40.544635
  0
ENDBLK
  5
369
100
AcDbEntity
  8
0
100
AcDbBlockEnd
  0
BLOCK
  5
3A2
100
AcDbEntity
  8
FOOT-A
100
AcDbBlockBegin
  2
A$CF1C0
 70
     0
 10
0.0
 20
0.0
 30
0.0
  3
A$CF1C0
  1

  0
INSERT
  5
36B
100
AcDbEntity
  8
SECTION
 62
     1
100
AcDbBlockReference
  2
*X9
 10
301.793725
 20
227.421666
 30
30.844635
 50
180.0
1001
ACAD
1000
HATCH
1002
{
1070
    19
1000
ANSI31
1040
5.0
1040
3.141593
1000
ASC_BOUNDS
1070
     1
1070
     2
1070
     9
1005
387
1005
382
1005
388
1005
377
1005
37D
1005
378
1005
36E
1005
39D
1005
36D
1000
ASC_SEEDPOINT
1011
-47.135496
1021
66.302
1031
30.844635
1002
}
  0
INSERT
  5
36C
100
AcDbEntity
  8
SECTION
 62
     1
100
AcDbBlockReference
  2
*X8
 10
301.793725
 20
227.421666
 30
30.844635
 50
180.0
1001
ACAD
1000
HATCH
1002
{
1070
    19
1000
ANSI31
1040
5.0
1040
0.0
1000
ASC_BOUNDS
1070
     1
1070
     2
1070
    13
1005
39A
1005
395
1005
38F
1005
38A
1005
394
1005
36F
1005
39E
1005
372
1005
39B
1005
370
1005
3A0
1005
371
1005
389
1000
ASC_SEEDPOINT
1011
-47.135496
1021
66.302
1031
30.844635
1002
}
  0
LINE
  5
36D
100
AcDbEntity
  8
SECTION
 62
     1
100
AcDbLine
 10
0.015561
 20
3.868346
 30
30.844635
 11
0.015561
 21
1.168746
 31
30.844635
1001
ACAD
1000
ASC_BOUNDS
1002
{
1070
    19
1005
36B
1002
}
  0
LINE
  5
36E
100
AcDbEntity
  8
SECTION
 62
     1
100
AcDbLine
 10
2.715561
 20
2.043746
 30
30.844635
 11
2.715561
 21
3.868346
 31
30.844635
1001
ACAD
1000
ASC_BOUNDS
1002
{
1070
    19
1005
36B
1002
}
  0
LINE
  5
36F
100
AcDbEntity
  8
SECTION
 62
     1
100
AcDbLine
 10
5.715561
 20
3.868346
 30
30.844635
 11
5.715561
 21
2.043746
 31
30.844635
1001
ACAD
1000
ASC_BOUNDS
1002
{
1070
    19
1005
36C
1002
}
  0
LINE
  5
370
100
AcDbEntity
  8
SECTION
 62
     1
100
AcDbLine
 10
9.415561
 20
3.868346
 30
30.844635
 11
9.415561
 21
2.943746
 31
30.844635
1001
ACAD
1000
ASC_BOUNDS
1002
{
1070
    19
1005
36C
1002
}
  0
LINE
  5
371
100
AcDbEntity
  8
SECTION
 62
     1
100
AcDbLine
 10
9.915561
 20
1.168746
 30
30.844635
 11
9.915561
 21
3.868346
 31
30.844635
1001
ACAD
1000
ASC_BOUNDS
1002
{
1070
    19
1005
36C
1002
}
  0
LINE
  5
372
100
AcDbEntity
  8
SECTION
 62
     1
100
AcDbLine
 10
7.415561
 20
2.943746
 30
30.844635
 11
7.415561
 21
3.868346
 31
30.844635
1001
ACAD
1000
ASC_BOUNDS
1002
{
1070
    19
1005
36C
1002
}
  0
LINE
  5
373
100
AcDbEntity
  8
SECTION
 62
     1
100
AcDbLine
 10
5.215561
 20
1.168746
 30
30.844635
 11
5.215561
 21
0.008746
 31
30.844635
  0
LINE
  5
374
100
AcDbEntity
  8
SECTION
 62
     1
100
AcDbLine
 10
3.215561
 20
0.008746
 30
30.844635
 11
3.215561
 21
1.168746
 31
30.844635
  0
LINE
  5
375
100
AcDbEntity
  8
HDI
 62
     1
100
AcDbLine
 10
5.030893
 20
2.043746
 30
30.844635
 11
3.400228
 21
2.043746
 31
30.844635
  0
LINE
  5
376
100
AcDbEntity
  8
SECTION
 62
     1
100
AcDbLine
 10
3.382706
 20
1.168746
 30
30.844635
 11
5.048416
 21
1.168746
 31
30.844635
  0
LINE
  5
377
100
AcDbEntity
  8
HDI
 62
     1
100
AcDbLine
 10
0.015561
 20
1.168746
 30
30.844635
 11
3.215561
 21
1.168746
 31
30.844635
1001
ACAD
1000
ASC_BOUNDS
1002
{
1070
    19
1005
36B
1002
}
  0
POLYLINE
  5
378
100
AcDbEntity
  8
HDI
 62
     1
100
AcDb2dPolyline
 66
     1
 10
0.0
 20
0.0
 30
30.844635
1001
ACAD
1000
ASC_BOUNDS
1002
{
1070
    19
1005
36B
1002
}
  0
VERTEX
  5
379
100
AcDbEntity
  8
HDI
 62
     1
100
AcDbVertex
100
AcDb2dVertex
 10
3.215561
 20
1.414339
 30
30.844635
  0
VERTEX
  5
37A
100
AcDbEntity
  8
HDI
 62
     1
100
AcDbVertex
100
AcDb2dVertex
 10
3.432061
 20
1.614339
 30
30.844635
  0
VERTEX
  5
37B
100
AcDbEntity
  8
HDI
 62
     1
100
AcDbVertex
100
AcDb2dVertex
 10
3.215561
 20
1.814339
 30
30.844635
  0
SEQEND
  5
37C
100
AcDbEntity
  8
HDI
 62
     1
  0
POLYLINE
  5
37D
100
AcDbEntity
  8
HDI
 62
     1
100
AcDb2dPolyline
 66
     1
 10
0.0
 20
0.0
 30
30.844635
1001
ACAD
1000
ASC_BOUNDS
1002
{
1070
    19
1005
36B
1002
}
  0
VERTEX
  5
37E
100
AcDbEntity
  8
HDI
 62
     1
100
AcDbVertex
100
AcDb2dVertex
 10
3.215561
 20
1.814339
 30
30.844635
  0
VERTEX
  5
37F
100
AcDbEntity
  8
HDI
 62
     1
100
AcDbVertex
100
AcDb2dVertex
 10
3.432061
 20
2.014339
 30
30.844635
  0
VERTEX
  5
380
100
AcDbEntity
  8
HDI
 62
     1
100
AcDbVertex
100
AcDb2dVertex
 10
3.400228
 20
2.043746
 30
30.844635
  0
SEQEND
  5
381
100
AcDbEntity
  8
HDI
 62
     1
  0
POLYLINE
  5
382
100
AcDbEntity
  8
HDI
 62
     1
100
AcDb2dPolyline
 66
     1
 10
0.0
 20
0.0
 30
30.844635
1001
ACAD
1000
ASC_BOUNDS
1002
{
1070
    19
1005
36B
1002
}
  0
VERTEX
  5
383
100
AcDbEntity
  8
HDI
 62
     1
100
AcDbVertex
100
AcDb2dVertex
 10
3.382706
 20
1.168746
 30
30.844635
  0
VERTEX
  5
384
100
AcDbEntity
  8
HDI
 62
     1
100
AcDbVertex
100
AcDb2dVertex
 10
3.432061
 20
1.214339
 30
30.844635
  0
VERTEX
  5
385
100
AcDbEntity
  8
HDI
 62
     1
100
AcDbVertex
100
AcDb2dVertex
 10
3.215561
 20
1.414339
 30
30.844635
  0
SEQEND
  5
386
100
AcDbEntity
  8
HDI
 62
     1
  0
LINE
  5
387
100
AcDbEntity
  8
SECTION
 62
     1
100
AcDbLine
 10
3.215561
 20
1.168746
 30
30.844635
 11
3.382706
 21
1.168746
 31
30.844635
1001
ACAD
1000
ASC_BOUNDS
1002
{
1070
    19
1005
36B
1002
}
  0
LINE
  5
388
100
AcDbEntity
  8
HDI
 62
     1
100
AcDbLine
 10
3.400228
 20
2.043746
 30
30.844635
 11
2.715561
 21
2.043746
 31
30.844635
1001
ACAD
1000
ASC_BOUNDS
1002
{
1070
    19
1005
36B
1002
}
  0
LINE
  5
389
100
AcDbEntity
  8
HDI
 62
     1
100
AcDbLine
 10
5.215561
 20
1.168746
 30
30.844635
 11
9.915561
 21
1.168746
 31
30.844635
1001
ACAD
1000
ASC_BOUNDS
1002
{
1070
    19
1005
36C
1002
}
  0
POLYLINE
  5
38A
100
AcDbEntity
  8
HDI
 62
     1
100
AcDb2dPolyline
 66
     1
 10
0.0
 20
0.0
 30
30.844635
1001
ACAD
1000
ASC_BOUNDS
1002
{
1070
    19
1005
36C
1002
}
  0
VERTEX
  5
38B
100
AcDbEntity
  8
HDI
 62
     1
100
AcDbVertex
100
AcDb2dVertex
 10
5.215561
 20
1.414339
 30
30.844635
  0
VERTEX
  5
38C
100
AcDbEntity
  8
HDI
 62
     1
100
AcDbVertex
100
AcDb2dVertex
 10
4.999061
 20
1.614339
 30
30.844635
  0
VERTEX
  5
38D
100
AcDbEntity
  8
HDI
 62
     1
100
AcDbVertex
100
AcDb2dVertex
 10
5.215561
 20
1.814339
 30
30.844635
  0
SEQEND
  5
38E
100
AcDbEntity
  8
HDI
 62
     1
  0
POLYLINE
  5
38F
100
AcDbEntity
  8
HDI
 62
     1
100
AcDb2dPolyline
 66
     1
 10
0.0
 20
0.0
 30
30.844635
1001
ACAD
1000
ASC_BOUNDS
1002
{
1070
    19
1005
36C
1002
}
  0
VERTEX
  5
390
100
AcDbEntity
  8
HDI
 62
     1
100
AcDbVertex
100
AcDb2dVertex
 10
5.215561
 20
1.814339
 30
30.844635
  0
VERTEX
  5
391
100
AcDbEntity
  8
HDI
 62
     1
100
AcDbVertex
100
AcDb2dVertex
 10
4.999061
 20
2.014339
 30
30.844635
  0
VERTEX
  5
392
100
AcDbEntity
  8
HDI
 62
     1
100
AcDbVertex
100
AcDb2dVertex
 10
5.030893
 20
2.043746
 30
30.844635
  0
SEQEND
  5
393
100
AcDbEntity
  8
HDI
 62
     1
  0
LINE
  5
394
100
AcDbEntity
  8
HDI
 62
     1
100
AcDbLine
 10
5.715561
 20
2.043746
 30
30.844635
 11
5.030893
 21
2.043746
 31
30.844635
1001
ACAD
1000
ASC_BOUNDS
1002
{
1070
    19
1005
36C
1002
}
  0
POLYLINE
  5
395
100
AcDbEntity
  8
HDI
 62
     1
100
AcDb2dPolyline
 66
     1
 10
0.0
 20
0.0
 30
30.844635
1001
ACAD
1000
ASC_BOUNDS
1002
{
1070
    19
1005
36C
1002
}
  0
VERTEX
  5
396
100
AcDbEntity
  8
HDI
 62
     1
100
AcDbVertex
100
AcDb2dVertex
 10
5.048416
 20
1.168746
 30
30.844635
  0
VERTEX
  5
397
100
AcDbEntity
  8
HDI
 62
     1
100
AcDbVertex
100
AcDb2dVertex
 10
4.999061
 20
1.214339
 30
30.844635
  0
VERTEX
  5
398
100
AcDbEntity
  8
HDI
 62
     1
100
AcDbVertex
100
AcDb2dVertex
 10
5.215561
 20
1.414339
 30
30.844635
  0
SEQEND
  5
399
100
AcDbEntity
  8
HDI
 62
     1
  0
LINE
  5
39A
100
AcDbEntity
  8
SECTION
 62
     1
100
AcDbLine
 10
5.048416
 20
1.168746
 30
30.844635
 11
5.215561
 21
1.168746
 31
30.844635
1001
ACAD
1000
ASC_BOUNDS
1002
{
1070
    19
1005
36C
1002
}
  0
LINE
  5
39B
100
AcDbEntity
  8
SECTION
 62
     1
100
AcDbLine
 10
9.415561
 20
2.943746
 30
30.844635
 11
7.415561
 21
2.943746
 31
30.844635
1001
ACAD
1000
ASC_BOUNDS
1002
{
1070
    19
1005
36C
1002
}
  0
LINE
  5
39C
100
AcDbEntity
  8
SECTION
 62
     1
100
AcDbLine
 10
2.715561
 20
3.868346
 30
30.844635
 11
5.715561
 21
3.868346
 31
30.844635
  0
LINE
  5
39D
100
AcDbEntity
  8
SECTION
 62
     1
100
AcDbLine
 10
2.715561
 20
3.868346
 30
30.844635
 11
0.015561
 21
3.868346
 31
30.844635
1001
ACAD
1000
ASC_BOUNDS
1002
{
1070
    19
1005
36B
1002
}
  0
LINE
  5
39E
100
AcDbEntity
  8
SECTION
 62
     1
100
AcDbLine
 10
7.415561
 20
3.868346
 30
30.844635
 11
5.715561
 21
3.868346
 31
30.844635
1001
ACAD
1000
ASC_BOUNDS
1002
{
1070
    19
1005
36C
1002
}
  0
LINE
  5
39F
100
AcDbEntity
  8
SECTION
 62
     1
100
AcDbLine
 10
9.415561
 20
3.868346
 30
30.844635
 11
7.415561
 21
3.868346
 31
30.844635
  0
LINE
  5
3A0
100
AcDbEntity
  8
SECTION
 62
     1
100
AcDbLine
 10
9.915561
 20
3.868346
 30
30.844635
 11
9.415561
 21
3.868346
 31
30.844635
1001
ACAD
1000
ASC_BOUNDS
1002
{
1070
    19
1005
36C
1002
}
  0
LINE
  5
3A1
100
AcDbEntity
  8
SECTION
 62
     1
100
AcDbLine
 10
5.215561
 20
0.008746
 30
30.844635
 11
3.215561
 21
0.008746
 31
30.844635
  0
ENDBLK
  5
3A3
100
AcDbEntity
  8
FOOT-A
100
AcDbBlockEnd
  0
BLOCK
  5
6F6
100
AcDbEntity
  8
FOOT
100
AcDbBlockBegin
  2
POST-1
 70
     0
 10
0.0
 20
0.0
 30
0.0
  3
POST-1
  1

  0
CIRCLE
  5
6DF
100
AcDbEntity
  8
BUSHING
100
AcDbCircle
 10
5.7
 20
2.5
 30
0.0
 40
0.8
  0
POLYLINE
  5
6E0
100
AcDbEntity
  8
BUSHING
  6
HIDDEN
100
AcDb2dPolyline
 66
     1
 10
0.0
 20
0.0
 30
0.0
 70
     1
  0
VERTEX
  5
6E1
100
AcDbEntity
  8
BUSHING
  6
HIDDEN
100
AcDbVertex
100
AcDb2dVertex
 10
4.0
 20
1.5
 30
0.0
  0
VERTEX
  5
6E2
100
AcDbEntity
  8
BUSHING
  6
HIDDEN
100
AcDbVertex
100
AcDb2dVertex
 10
4.0
 20
8.2
 30
0.0
 42
-0.414214
  0
VERTEX
  5
6E3
100
AcDbEntity
  8
BUSHING
  6
HIDDEN
100
AcDbVertex
100
AcDb2dVertex
 10
4.5
 20
8.7
 30
0.0
  0
VERTEX
  5
6E4
100
AcDbEntity
  8
BUSHING
  6
HIDDEN
100
AcDbVertex
100
AcDb2dVertex
 10
6.9
 20
8.7
 30
0.0
 42
-0.414214
  0
VERTEX
  5
6E5
100
AcDbEntity
  8
BUSHING
  6
HIDDEN
100
AcDbVertex
100
AcDb2dVertex
 10
7.4
 20
8.2
 30
0.0
  0
VERTEX
  5
6E6
100
AcDbEntity
  8
BUSHING
  6
HIDDEN
100
AcDbVertex
100
AcDb2dVertex
 10
7.4
 20
1.5
 30
0.0
 42
-0.414214
  0
VERTEX
  5
6E7
100
AcDbEntity
  8
BUSHING
  6
HIDDEN
100
AcDbVertex
100
AcDb2dVertex
 10
6.9
 20
1.0
 30
0.0
  0
VERTEX
  5
6E8
100
AcDbEntity
  8
BUSHING
  6
HIDDEN
100
AcDbVertex
100
AcDb2dVertex
 10
4.5
 20
1.0
 30
0.0
 42
-0.414214
  0
SEQEND
  5
6E9
100
AcDbEntity
  8
BUSHING
  6
HIDDEN
  0
LINE
  5
6EA
100
AcDbEntity
  8
BUSHING
100
AcDbLine
 10
0.5
 20
8.7
 30
0.0
 11
0.5
 21
1.0
 31
0.0
  0
LINE
  5
6EB
100
AcDbEntity
  8
BUSHING
100
AcDbLine
 10
2.5
 20
8.7
 30
0.0
 11
2.5
 21
1.0
 31
0.0
  0
CIRCLE
  5
6EC
100
AcDbEntity
  8
BUSHING
100
AcDbCircle
 10
5.7
 20
2.5
 30
0.0
 40
1.7
  0
LINE
  5
6ED
100
AcDbEntity
  8
BUSHING
100
AcDbLine
 10
0.0
 20
9.7
 30
0.0
 11
0.0
 21
0.0
 31
0.0
  0
LINE
  5
6EE
100
AcDbEntity
  8
BUSHING
100
AcDbLine
 10
9.9
 20
9.7
 30
0.0
 11
9.9
 21
0.0
 31
0.0
  0
LINE
  5
6EF
100
AcDbEntity
  8
BUSHING
100
AcDbLine
 10
0.0
 20
0.0
 30
0.0
 11
9.9
 21
0.0
 31
0.0
  0
LINE
  5
6F0
100
AcDbEntity
  8
BUSHING
100
AcDbLine
 10
0.5
 20
1.0
 30
0.0
 11
2.5
 21
1.0
 31
0.0
  0
LINE
  5
6F1
100
AcDbEntity
  8
BUSHING
100
AcDbLine
 10
0.0
 20
9.7
 30
0.0
 11
9.9
 21
9.7
 31
0.0
  0
LINE
  5
6F2
100
AcDbEntity
  8
BUSHING
100
AcDbLine
 10
0.5
 20
8.7
 30
0.0
 11
2.5
 21
8.7
 31
0.0
  0
CIRCLE
  5
6F3
100
AcDbEntity
  8
BUSHING
100
AcDbCircle
 10
5.7
 20
7.2
 30
0.0
 40
1.7
  0
CIRCLE
  5
6F4
100
AcDbEntity
  8
BUSHING
100
AcDbCircle
 10
5.7
 20
7.2
 30
0.0
 40
0.8
  0
CIRCLE
  5
6F5
100
AcDbEntity
  8
BUSHING
100
AcDbCircle
 10
5.7
 20
4.85
 30
0.0
 40
0.5
  0
ENDBLK
  5
6F7
100
AcDbEntity
  8
FOOT
100
AcDbBlockEnd
  0
BLOCK
  5
735
100
AcDbEntity
  8
SCRATCH
100
AcDbBlockBegin
  2
A$C23D
 70
     0
 10
0.0
 20
0.0
 30
0.0
  3
A$C23D
  1

  0
POLYLINE
  5
6F9
100
AcDbEntity
  8
BONDPAD
  6
CONTINUOUS
100
AcDb2dPolyline
 66
     1
 10
0.0
 20
0.0
 30
0.4
 70
     1
  0
VERTEX
  5
6FA
100
AcDbEntity
  8
BONDPAD
  6
CONTINUOUS
100
AcDbVertex
100
AcDb2dVertex
 10
-5.297801
 20
0.669586
 30
0.4
  0
VERTEX
  5
6FB
100
AcDbEntity
  8
BONDPAD
  6
CONTINUOUS
100
AcDbVertex
100
AcDb2dVertex
 10
-5.237801
 20
0.669586
 30
0.4
  0
VERTEX
  5
6FC
100
AcDbEntity
  8
BONDPAD
  6
CONTINUOUS
100
AcDbVertex
100
AcDb2dVertex
 10
-5.237801
 20
0.369586
 30
0.4
  0
VERTEX
  5
6FD
100
AcDbEntity
  8
BONDPAD
  6
CONTINUOUS
100
AcDbVertex
100
AcDb2dVertex
 10
-5.297801
 20
0.369586
 30
0.4
  0
SEQEND
  5
6FE
100
AcDbEntity
  8
BONDPAD
  6
CONTINUOUS
  0
POLYLINE
  5
6FF
100
AcDbEntity
  8
BONDPAD
  6
CONTINUOUS
100
AcDb2dPolyline
 66
     1
 10
0.0
 20
0.0
 30
0.4
 70
     1
  0
VERTEX
  5
700
100
AcDbEntity
  8
BONDPAD
  6
CONTINUOUS
100
AcDbVertex
100
AcDb2dVertex
 10
-5.255001
 20
0.309586
 30
0.4
  0
VERTEX
  5
701
100
AcDbEntity
  8
BONDPAD
  6
CONTINUOUS
100
AcDbVertex
100
AcDb2dVertex
 10
-5.195001
 20
0.309586
 30
0.4
  0
VERTEX
  5
702
100
AcDbEntity
  8
BONDPAD
  6
CONTINUOUS
100
AcDbVertex
100
AcDb2dVertex
 10
-5.195001
 20
0.009586
 30
0.4
  0
VERTEX
  5
703
100
AcDbEntity
  8
BONDPAD
  6
CONTINUOUS
100
AcDbVertex
100
AcDb2dVertex
 10
-5.255001
 20
0.009586
 30
0.4
  0
SEQEND
  5
704
100
AcDbEntity
  8
BONDPAD
  6
CONTINUOUS
  0
POLYLINE
  5
705
100
AcDbEntity
  8
BONDPAD
  6
CONTINUOUS
100
AcDb2dPolyline
 66
     1
 10
0.0
 20
0.0
 30
0.4
 70
     1
  0
VERTEX
  5
706
100
AcDbEntity
  8
BONDPAD
  6
CONTINUOUS
100
AcDbVertex
100
AcDb2dVertex
 10
-5.212201
 20
0.669586
 30
0.4
  0
VERTEX
  5
707
100
AcDbEntity
  8
BONDPAD
  6
CONTINUOUS
100
AcDbVertex
100
AcDb2dVertex
 10
-5.152201
 20
0.669586
 30
0.4
  0
VERTEX
  5
708
100
AcDbEntity
  8
BONDPAD
  6
CONTINUOUS
100
AcDbVertex
100
AcDb2dVertex
 10
-5.152201
 20
0.369586
 30
0.4
  0
VERTEX
  5
709
100
AcDbEntity
  8
BONDPAD
  6
CONTINUOUS
100
AcDbVertex
100
AcDb2dVertex
 10
-5.212201
 20
0.369586
 30
0.4
  0
SEQEND
  5
70A
100
AcDbEntity
  8
BONDPAD
  6
CONTINUOUS
  0
POLYLINE
  5
70B
100
AcDbEntity
  8
BONDPAD
  6
CONTINUOUS
100
AcDb2dPolyline
 66
     1
 10
0.0
 20
0.0
 30
0.4
 70
     1
  0
VERTEX
  5
70C
100
AcDbEntity
  8
BONDPAD
  6
CONTINUOUS
100
AcDbVertex
100
AcDb2dVertex
 10
-5.169401
 20
0.309586
 30
0.4
  0
VERTEX
  5
70D
100
AcDbEntity
  8
BONDPAD
  6
CONTINUOUS
100
AcDbVertex
100
AcDb2dVertex
 10
-5.109401
 20
0.309586
 30
0.4
  0
VERTEX
  5
70E
100
AcDbEntity
  8
BONDPAD
  6
CONTINUOUS
100
AcDbVertex
100
AcDb2dVertex
 10
-5.109401
 20
0.009586
 30
0.4
  0
VERTEX
  5
70F
100
AcDbEntity
  8
BONDPAD
  6
CONTINUOUS
100
AcDbVertex
100
AcDb2dVertex
 10
-5.169401
 20
0.009586
 30
0.4
  0
SEQEND
  5
710
100
AcDbEntity
  8
BONDPAD
  6
CONTINUOUS
  0
POLYLINE
  5
711
100
AcDbEntity
  8
BONDPAD
  6
CONTINUOUS
100
AcDb2dPolyline
 66
     1
 10
0.0
 20
0.0
 30
0.4
 70
     1
  0
VERTEX
  5
712
100
AcDbEntity
  8
BONDPAD
  6
CONTINUOUS
100
AcDbVertex
100
AcDb2dVertex
 10
-5.126601
 20
0.669586
 30
0.4
  0
VERTEX
  5
713
100
AcDbEntity
  8
BONDPAD
  6
CONTINUOUS
100
AcDbVertex
100
AcDb2dVertex
 10
-5.066601
 20
0.669586
 30
0.4
  0
VERTEX
  5
714
100
AcDbEntity
  8
BONDPAD
  6
CONTINUOUS
100
AcDbVertex
100
AcDb2dVertex
 10
-5.066601
 20
0.369586
 30
0.4
  0
VERTEX
  5
715
100
AcDbEntity
  8
BONDPAD
  6
CONTINUOUS
100
AcDbVertex
100
AcDb2dVertex
 10
-5.126601
 20
0.369586
 30
0.4
  0
SEQEND
  5
716
100
AcDbEntity
  8
BONDPAD
  6
CONTINUOUS
  0
POLYLINE
  5
717
100
AcDbEntity
  8
BONDPAD
  6
CONTINUOUS
100
AcDb2dPolyline
 66
     1
 10
0.0
 20
0.0
 30
0.4
 70
     1
  0
VERTEX
  5
718
100
AcDbEntity
  8
BONDPAD
  6
CONTINUOUS
100
AcDbVertex
100
AcDb2dVertex
 10
-0.033401
 20
0.309586
 30
0.4
  0
VERTEX
  5
719
100
AcDbEntity
  8
BONDPAD
  6
CONTINUOUS
100
AcDbVertex
100
AcDb2dVertex
 10
0.026599
 20
0.309586
 30
0.4
  0
VERTEX
  5
71A
100
AcDbEntity
  8
BONDPAD
  6
CONTINUOUS
100
AcDbVertex
100
AcDb2dVertex
 10
0.026599
 20
0.009586
 30
0.4
  0
VERTEX
  5
71B
100
AcDbEntity
  8
BONDPAD
  6
CONTINUOUS
100
AcDbVertex
100
AcDb2dVertex
 10
-0.033401
 20
0.009586
 30
0.4
  0
SEQEND
  5
71C
100
AcDbEntity
  8
BONDPAD
  6
CONTINUOUS
  0
POLYLINE
  5
71D
100
AcDbEntity
  8
BONDPAD
  6
CONTINUOUS
100
AcDb2dPolyline
 66
     1
 10
0.0
 20
0.0
 30
0.4
 70
     1
  0
VERTEX
  5
71E
100
AcDbEntity
  8
BONDPAD
  6
CONTINUOUS
100
AcDbVertex
100
AcDb2dVertex
 10
0.009399
 20
0.669586
 30
0.4
  0
VERTEX
  5
71F
100
AcDbEntity
  8
BONDPAD
  6
CONTINUOUS
100
AcDbVertex
100
AcDb2dVertex
 10
0.069399
 20
0.669586
 30
0.4
  0
VERTEX
  5
720
100
AcDbEntity
  8
BONDPAD
  6
CONTINUOUS
100
AcDbVertex
100
AcDb2dVertex
 10
0.069399
 20
0.369586
 30
0.4
  0
VERTEX
  5
721
100
AcDbEntity
  8
BONDPAD
  6
CONTINUOUS
100
AcDbVertex
100
AcDb2dVertex
 10
0.009399
 20
0.369586
 30
0.4
  0
SEQEND
  5
722
100
AcDbEntity
  8
BONDPAD
  6
CONTINUOUS
  0
POLYLINE
  5
723
100
AcDbEntity
  8
BONDPAD
  6
CONTINUOUS
100
AcDb2dPolyline
 66
     1
 10
0.0
 20
0.0
 30
0.4
 70
     1
  0
VERTEX
  5
724
100
AcDbEntity
  8
BONDPAD
  6
CONTINUOUS
100
AcDbVertex
100
AcDb2dVertex
 10
0.052199
 20
0.309586
 30
0.4
  0
VERTEX
  5
725
100
AcDbEntity
  8
BONDPAD
  6
CONTINUOUS
100
AcDbVertex
100
AcDb2dVertex
 10
0.112199
 20
0.309586
 30
0.4
  0
VERTEX
  5
726
100
AcDbEntity
  8
BONDPAD
  6
CONTINUOUS
100
AcDbVertex
100
AcDb2dVertex
 10
0.112199
 20
0.009586
 30
0.4
  0
VERTEX
  5
727
100
AcDbEntity
  8
BONDPAD
  6
CONTINUOUS
100
AcDbVertex
100
AcDb2dVertex
 10
0.052199
 20
0.009586
 30
0.4
  0
SEQEND
  5
728
100
AcDbEntity
  8
BONDPAD
  6
CONTINUOUS
  0
POLYLINE
  5
729
100
AcDbEntity
  8
BONDPAD
  6
CONTINUOUS
100
AcDb2dPolyline
 66
     1
 10
0.0
 20
0.0
 30
0.4
 70
     1
  0
VERTEX
  5
72A
100
AcDbEntity
  8
BONDPAD
  6
CONTINUOUS
100
AcDbVertex
100
AcDb2dVertex
 10
0.094999
 20
0.669586
 30
0.4
  0
VERTEX
  5
72B
100
AcDbEntity
  8
BONDPAD
  6
CONTINUOUS
100
AcDbVertex
100
AcDb2dVertex
 10
0.154999
 20
0.669586
 30
0.4
  0
VERTEX
  5
72C
100
AcDbEntity
  8
BONDPAD
  6
CONTINUOUS
100
AcDbVertex
100
AcDb2dVertex
 10
0.154999
 20
0.369586
 30
0.4
  0
VERTEX
  5
72D
100
AcDbEntity
  8
BONDPAD
  6
CONTINUOUS
100
AcDbVertex
100
AcDb2dVertex
 10
0.094999
 20
0.369586
 30
0.4
  0
SEQEND
  5
72E
100
AcDbEntity
  8
BONDPAD
  6
CONTINUOUS
  0
POLYLINE
  5
72F
100
AcDbEntity
  8
BONDPAD
  6
CONTINUOUS
100
AcDb2dPolyline
 66
     1
 10
0.0
 20
0.0
 30
0.4
 70
     1
  0
VERTEX
  5
730
100
AcDbEntity
  8
BONDPAD
  6
CONTINUOUS
100
AcDbVertex
100
AcDb2dVertex
 10
0.137799
 20
0.309586
 30
0.4
  0
VERTEX
  5
731
100
AcDbEntity
  8
BONDPAD
  6
CONTINUOUS
100
AcDbVertex
100
AcDb2dVertex
 10
0.197799
 20
0.309586
 30
0.4
  0
VERTEX
  5
732
100
AcDbEntity
  8
BONDPAD
  6
CONTINUOUS
100
AcDbVertex
100
AcDb2dVertex
 10
0.197799
 20
0.009586
 30
0.4
  0
VERTEX
  5
733
100
AcDbEntity
  8
BONDPAD
  6
CONTINUOUS
100
AcDbVertex
100
AcDb2dVertex
 10
0.137799
 20
0.009586
 30
0.4
  0
SEQEND
  5
734
100
AcDbEntity
  8
BONDPAD
  6
CONTINUOUS
  0
ENDBLK
  5
736
100
AcDbEntity
  8
SCRATCH
100
AcDbBlockEnd
  0
BLOCK
  5
74F
100
AcDbEntity
  8
0
100
AcDbBlockBegin
  2
*X13
 70
    65
 10
0.0
 20
0.0
 30
0.0
  3
*X13
  1

  0
LINE
  5
738
100
AcDbEntity
  8
0
 62
     0
100
AcDbLine
 10
105.871943
 20
75.819905
 30
0.0
 11
106.371943
 21
76.319905
 31
0.0
  0
LINE
  5
739
100
AcDbEntity
  8
0
 62
     0
100
AcDbLine
 10
115.590718
 20
85.53868
 30
0.0
 11
116.090718
 21
86.03868
 31
0.0
  0
LINE
  5
73A
100
AcDbEntity
  8
0
 62
     0
100
AcDbLine
 10
105.871943
 20
77.587672
 30
0.0
 11
106.371943
 21
78.087672
 31
0.0
  0
LINE
  5
73B
100
AcDbEntity
  8
0
 62
     0
100
AcDbLine
 10
113.822951
 20
85.53868
 30
0.0
 11
114.322951
 21
86.03868
 31
0.0
  0
LINE
  5
73C
100
AcDbEntity
  8
0
 62
     0
100
AcDbLine
 10
105.871943
 20
79.355439
 30
0.0
 11
106.371943
 21
79.855439
 31
0.0
  0
LINE
  5
73D
100
AcDbEntity
  8
0
 62
     0
100
AcDbLine
 10
112.055184
 20
85.53868
 30
0.0
 11
112.555184
 21
86.03868
 31
0.0
  0
LINE
  5
73E
100
AcDbEntity
  8
0
 62
     0
100
AcDbLine
 10
105.871943
 20
81.123206
 30
0.0
 11
106.371943
 21
81.623206
 31
0.0
  0
LINE
  5
73F
100
AcDbEntity
  8
0
 62
     0
100
AcDbLine
 10
110.287417
 20
85.53868
 30
0.0
 11
110.787417
 21
86.03868
 31
0.0
  0
LINE
  5
740
100
AcDbEntity
  8
0
 62
     0
100
AcDbLine
 10
105.871943
 20
82.890973
 30
0.0
 11
106.371943
 21
83.390973
 31
0.0
  0
LINE
  5
741
100
AcDbEntity
  8
0
 62
     0
100
AcDbLine
 10
108.51965
 20
85.53868
 30
0.0
 11
109.01965
 21
86.03868
 31
0.0
  0
LINE
  5
742
100
AcDbEntity
  8
0
 62
     0
100
AcDbLine
 10
105.871943
 20
84.65874
 30
0.0
 11
106.371943
 21
85.15874
 31
0.0
  0
LINE
  5
743
100
AcDbEntity
  8
0
 62
     0
100
AcDbLine
 10
106.751883
 20
85.53868
 30
0.0
 11
107.251883
 21
86.03868
 31
0.0
  0
LINE
  5
744
100
AcDbEntity
  8
0
 62
     0
100
AcDbLine
 10
107.158485
 20
75.33868
 30
0.0
 11
107.658485
 21
75.83868
 31
0.0
  0
LINE
  5
745
100
AcDbEntity
  8
0
 62
     0
100
AcDbLine
 10
116.271943
 20
84.452138
 30
0.0
 11
116.771943
 21
84.952138
 31
0.0
  0
LINE
  5
746
100
AcDbEntity
  8
0
 62
     0
100
AcDbLine
 10
108.926252
 20
75.33868
 30
0.0
 11
109.426252
 21
75.83868
 31
0.0
  0
LINE
  5
747
100
AcDbEntity
  8
0
 62
     0
100
AcDbLine
 10
116.271943
 20
82.684371
 30
0.0
 11
116.771943
 21
83.184371
 31
0.0
  0
LINE
  5
748
100
AcDbEntity
  8
0
 62
     0
100
AcDbLine
 10
110.694019
 20
75.33868
 30
0.0
 11
111.194019
 21
75.83868
 31
0.0
  0
LINE
  5
749
100
AcDbEntity
  8
0
 62
     0
100
AcDbLine
 10
116.271943
 20
80.916604
 30
0.0
 11
116.771943
 21
81.416604
 31
0.0
  0
LINE
  5
74A
100
AcDbEntity
  8
0
 62
     0
100
AcDbLine
 10
112.461786
 20
75.33868
 30
0.0
 11
112.961786
 21
75.83868
 31
0.0
  0
LINE
  5
74B
100
AcDbEntity
  8
0
 62
     0
100
AcDbLine
 10
116.271943
 20
79.148837
 30
0.0
 11
116.771943
 21
79.648837
 31
0.0
  0
LINE
  5
74C
100
AcDbEntity
  8
0
 62
     0
100
AcDbLine
 10
114.229553
 20
75.33868
 30
0.0
 11
114.729553
 21
75.83868
 31
0.0
  0
LINE
  5
74D
100
AcDbEntity
  8
0
 62
     0
100
AcDbLine
 10
116.271943
 20
77.38107
 30
0.0
 11
116.771943
 21
77.88107
 31
0.0
  0
LINE
  5
74E
100
AcDbEntity
  8
0
 62
     0
100
AcDbLine
 10
115.99732
 20
75.33868
 30
0.0
 11
116.771943
 21
76.113303
 31
0.0
  0
ENDBLK
  5
750
100
AcDbEntity
  8
0
100
AcDbBlockEnd
  0
BLOCK
  5
76A
100
AcDbEntity
  8
0
100
AcDbBlockBegin
  2
*X14
 70
    65
 10
0.0
 20
0.0
 30
0.0
  3
*X14
  1

  0
LINE
  5
752
100
AcDbEntity
  8
0
 62
     0
100
AcDbLine
 10
105.871943
 20
58.142235
 30
0.0
 11
106.371943
 21
58.642235
 31
0.0
  0
LINE
  5
753
100
AcDbEntity
  8
0
 62
     0
100
AcDbLine
 10
114.568387
 20
66.83868
 30
0.0
 11
115.068387
 21
67.33868
 31
0.0
  0
LINE
  5
754
100
AcDbEntity
  8
0
 62
     0
100
AcDbLine
 10
105.871943
 20
59.910002
 30
0.0
 11
106.371943
 21
60.410002
 31
0.0
  0
LINE
  5
755
100
AcDbEntity
  8
0
 62
     0
100
AcDbLine
 10
112.80062
 20
66.83868
 30
0.0
 11
113.30062
 21
67.33868
 31
0.0
  0
LINE
  5
756
100
AcDbEntity
  8
0
 62
     0
100
AcDbLine
 10
105.871943
 20
61.677769
 30
0.0
 11
106.371943
 21
62.177769
 31
0.0
  0
LINE
  5
757
100
AcDbEntity
  8
0
 62
     0
100
AcDbLine
 10
111.032853
 20
66.83868
 30
0.0
 11
111.532853
 21
67.33868
 31
0.0
  0
LINE
  5
758
100
AcDbEntity
  8
0
 62
     0
100
AcDbLine
 10
105.871943
 20
63.445536
 30
0.0
 11
106.371943
 21
63.945536
 31
0.0
  0
LINE
  5
759
100
AcDbEntity
  8
0
 62
     0
100
AcDbLine
 10
109.265086
 20
66.83868
 30
0.0
 11
109.765086
 21
67.33868
 31
0.0
  0
LINE
  5
75A
100
AcDbEntity
  8
0
 62
     0
100
AcDbLine
 10
105.871943
 20
65.213303
 30
0.0
 11
106.371943
 21
65.713303
 31
0.0
  0
LINE
  5
75B
100
AcDbEntity
  8
0
 62
     0
100
AcDbLine
 10
107.49732
 20
66.83868
 30
0.0
 11
107.99732
 21
67.33868
 31
0.0
  0
LINE
  5
75C
100
AcDbEntity
  8
0
 62
     0
100
AcDbLine
 10
105.871943
 20
66.98107
 30
0.0
 11
106.229553
 21
67.33868
 31
0.0
  0
LINE
  5
75D
100
AcDbEntity
  8
0
 62
     0
100
AcDbLine
 10
106.136154
 20
56.63868
 30
0.0
 11
106.636154
 21
57.13868
 31
0.0
  0
LINE
  5
75E
100
AcDbEntity
  8
0
 62
     0
100
AcDbLine
 10
116.271943
 20
66.774469
 30
0.0
 11
116.771943
 21
67.274469
 31
0.0
  0
LINE
  5
75F
100
AcDbEntity
  8
0
 62
     0
100
AcDbLine
 10
107.903921
 20
56.63868
 30
0.0
 11
108.403921
 21
57.13868
 31
0.0
  0
LINE
  5
760
100
AcDbEntity
  8
0
 62
     0
100
AcDbLine
 10
116.271943
 20
65.006702
 30
0.0
 11
116.771943
 21
65.506702
 31
0.0
  0
LINE
  5
761
100
AcDbEntity
  8
0
 62
     0
100
AcDbLine
 10
109.671688
 20
56.63868
 30
0.0
 11
110.171688
 21
57.13868
 31
0.0
  0
LINE
  5
762
100
AcDbEntity
  8
0
 62
     0
100
AcDbLine
 10
116.271943
 20
63.238935
 30
0.0
 11
116.771943
 21
63.738935
 31
0.0
  0
LINE
  5
763
100
AcDbEntity
  8
0
 62
     0
100
AcDbLine
 10
111.439455
 20
56.63868
 30
0.0
 11
111.939455
 21
57.13868
 31
0.0
  0
LINE
  5
764
100
AcDbEntity
  8
0
 62
     0
100
AcDbLine
 10
116.271943
 20
61.471168
 30
0.0
 11
116.771943
 21
61.971168
 31
0.0
  0
LINE
  5
765
100
AcDbEntity
  8
0
 62
     0
100
AcDbLine
 10
113.207222
 20
56.63868
 30
0.0
 11
113.707222
 21
57.13868
 31
0.0
  0
LINE
  5
766
100
AcDbEntity
  8
0
 62
     0
100
AcDbLine
 10
116.271943
 20
59.703401
 30
0.0
 11
116.771943
 21
60.203401
 31
0.0
  0
LINE
  5
767
100
AcDbEntity
  8
0
 62
     0
100
AcDbLine
 10
114.974989
 20
56.63868
 30
0.0
 11
115.474989
 21
57.13868
 31
0.0
  0
LINE
  5
768
100
AcDbEntity
  8
0
 62
     0
100
AcDbLine
 10
116.271943
 20
57.935634
 30
0.0
 11
116.771943
 21
58.435634
 31
0.0
  0
LINE
  5
769
100
AcDbEntity
  8
0
 62
     0
100
AcDbLine
 10
116.742756
 20
56.63868
 30
0.0
 11
116.771943
 21
56.667867
 31
0.0
  0
ENDBLK
  5
76B
100
AcDbEntity
  8
0
100
AcDbBlockEnd
  0
BLOCK
  5
7D0
100
AcDbEntity
  8
0
100
AcDbBlockBegin
  2
L1-2-HDI
 70
     0
 10
0.0
 20
0.0
 30
0.0
  3
L1-2-HDI
  1

  0
INSERT
  5
771
100
AcDbEntity
  8
CENTER
100
AcDbBlockReference
  2
POST-1
 10
22.8
 20
40.973
 30
0.0
 41
-1.0
 50
180.0
  0
INSERT
  5
772
100
AcDbEntity
  8
CENTER
100
AcDbBlockReference
  2
POST-1
 10
22.8
 20
22.273
 30
0.0
 41
-1.0
 50
180.0
  0
LINE
  5
773
100
AcDbEntity
  8
CENTER
100
AcDbLine
 10
-16.397091
 20
32.26999
 30
0.0
 11
65.564048
 21
32.26999
 31
0.0
1001
ACAD
1000
ASC_BOUNDS
1002
{
1070
    19
1005
0
1005
0
1005
0
1005
0
1005
0
1005
0
1005
0
1005
0
1005
0
1005
0
1005
0
1005
0
1005
0
1005
0
1005
0
1005
0
1005
0
1005
0
1005
0
1005
0
1005
0
1005
0
1005
0
1005
0
1005
0
1005
0
1005
0
1005
0
1005
0
1005
0
1005
0
1005
0
1005
0
1005
0
1005
0
1005
0
1005
0
1005
0
1005
0
1005
0
1005
0
1005
0
1005
0
1005
0
1005
0
1005
0
1005
0
1005
0
1005
0
1005
0
1005
0
1005
0
1005
0
1005
0
1005
0
1005
0
1005
0
1005
0
1005
0
1005
0
1005
0
1005
0
1005
0
1005
0
1005
0
1005
0
1005
0
1005
0
1005
0
1005
0
1005
0
1005
0
1005
0
1005
0
1005
0
1005
0
1005
0
1005
0
1005
0
1002
}
  0
LINE
  5
774
100
AcDbEntity
  8
SCRATCH
 62
     4
100
AcDbLine
 10
41.2
 20
0.0
 30
0.0
 11
41.2
 21
46.8
 31
0.0
  0
LINE
  5
775
100
AcDbEntity
  8
SCRATCH
100
AcDbLine
 10
34.2
 20
16.453
 30
0.0
 11
34.2
 21
37.093
 31
0.0
  0
LINE
  5
776
100
AcDbEntity
  8
SCRATCH
100
AcDbLine
 10
40.2
 20
16.453
 30
0.0
 11
40.2
 21
37.093
 31
0.0
  0
LINE
  5
777
100
AcDbEntity
  8
SCRATCH
 62
     4
100
AcDbLine
 10
0.0
 20
0.0
 30
0.0
 11
0.0
 21
46.8
 31
0.0
  0
LINE
  5
778
100
AcDbEntity
  8
SCRATCH
 62
     4
100
AcDbLine
 10
0.0
 20
46.8
 30
0.0
 11
41.2
 21
46.8
 31
0.0
  0
LINE
  5
779
100
AcDbEntity
  8
SCRATCH
100
AcDbLine
 10
40.2
 20
37.093
 30
0.0
 11
34.2
 21
37.093
 31
0.0
  0
LINE
  5
77A
100
AcDbEntity
  8
SCRATCH
 62
     4
100
AcDbLine
 10
0.0
 20
0.0
 30
0.0
 11
41.2
 21
0.0
 31
0.0
  0
LINE
  5
77B
100
AcDbEntity
  8
SCRATCH
100
AcDbLine
 10
40.2
 20
16.453
 30
0.0
 11
34.2
 21
16.453
 31
0.0
  0
ELLIPSE
  5
77C
100
AcDbEntity
  8
SCRATCH
 62
     4
100
AcDbEllipse
 10
27.3
 20
20.773
 30
0.0
 11
-0.7071067811865497
 21
0.7071067811865497
 31
0.0
210
0.0
220
0.0
230
-1.0
 40
1.0
 41
-0.7853981633974513
 42
0.7853981633974513
  0
LINE
  5
77D
100
AcDbEntity
  8
SCRATCH
 62
     4
100
AcDbLine
 10
26.3
 20
20.773
 30
0.0
 11
26.3
 21
14.073
 31
0.0
  0
ELLIPSE
  5
77E
100
AcDbEntity
  8
SCRATCH
 62
     4
100
AcDbEllipse
 10
27.3
 20
14.073
 30
0.0
 11
-0.7071067811865497
 21
0.7071067811865497
 31
0.0
210
0.0
220
0.0
230
-1.0
 40
1.0
 41
-2.356194490192341
 42
-0.7853981633974513
  0
LINE
  5
77F
100
AcDbEntity
  8
SCRATCH
 62
     4
100
AcDbLine
 10
27.3
 20
13.073
 30
0.0
 11
29.7
 21
13.073
 31
0.0
  0
ELLIPSE
  5
780
100
AcDbEntity
  8
SCRATCH
 62
     4
100
AcDbEllipse
 10
29.7
 20
14.073
 30
0.0
 11
-0.7071067811865497
 21
0.7071067811865497
 31
0.0
210
0.0
220
0.0
230
-1.0
 40
1.0
 41
2.356194490192341
 42
3.926990816987557
  0
LINE
  5
781
100
AcDbEntity
  8
SCRATCH
 62
     4
100
AcDbLine
 10
30.7
 20
14.073
 30
0.0
 11
30.7
 21
20.773
 31
0.0
  0
ELLIPSE
  5
782
100
AcDbEntity
  8
SCRATCH
 62
     4
100
AcDbEllipse
 10
29.7
 20
20.773
 30
0.0
 11
-0.7071067811865497
 21
0.7071067811865497
 31
0.0
210
0.0
220
0.0
230
-1.0
 40
1.0
 41
0.7853981633974513
 42
2.356194490192341
  0
LINE
  5
783
100
AcDbEntity
  8
SCRATCH
 62
     4
100
AcDbLine
 10
29.7
 20
21.773
 30
0.0
 11
27.3
 21
21.773
 31
0.0
  0
ELLIPSE
  5
784
100
AcDbEntity
  8
SCRATCH
 62
     4
100
AcDbEllipse
 10
27.3
 20
39.473
 30
0.0
 11
-0.7071067811865497
 21
0.7071067811865497
 31
0.0
210
0.0
220
0.0
230
-1.0
 40
1.0
 41
-0.7853981633974513
 42
0.7853981633974513
  0
LINE
  5
785
100
AcDbEntity
  8
SCRATCH
 62
     4
100
AcDbLine
 10
26.3
 20
39.473
 30
0.0
 11
26.3
 21
32.773
 31
0.0
  0
ELLIPSE
  5
786
100
AcDbEntity
  8
SCRATCH
 62
     4
100
AcDbEllipse
 10
27.3
 20
32.773
 30
0.0
 11
-0.7071067811865497
 21
0.7071067811865497
 31
0.0
210
0.0
220
0.0
230
-1.0
 40
1.0
 41
-2.356194490192341
 42
-0.7853981633974513
  0
LINE
  5
787
100
AcDbEntity
  8
SCRATCH
 62
     4
100
AcDbLine
 10
27.3
 20
31.773
 30
0.0
 11
29.7
 21
31.773
 31
0.0
  0
ELLIPSE
  5
788
100
AcDbEntity
  8
SCRATCH
 62
     4
100
AcDbEllipse
 10
29.7
 20
32.773
 30
0.0
 11
-0.7071067811865497
 21
0.7071067811865497
 31
0.0
210
0.0
220
0.0
230
-1.0
 40
1.0
 41
2.356194490192341
 42
3.926990816987557
  0
LINE
  5
789
100
AcDbEntity
  8
SCRATCH
 62
     4
100
AcDbLine
 10
30.7
 20
32.773
 30
0.0
 11
30.7
 21
39.473
 31
0.0
  0
ELLIPSE
  5
78A
100
AcDbEntity
  8
SCRATCH
 62
     4
100
AcDbEllipse
 10
29.7
 20
39.473
 30
0.0
 11
-0.7071067811865497
 21
0.7071067811865497
 31
0.0
210
0.0
220
0.0
230
-1.0
 40
1.0
 41
0.7853981633974513
 42
2.356194490192341
  0
LINE
  5
78B
100
AcDbEntity
  8
SCRATCH
 62
     4
100
AcDbLine
 10
29.7
 20
40.473
 30
0.0
 11
27.3
 21
40.473
 31
0.0
  0
LINE
  5
78C
100
AcDbEntity
  8
SCRATCH
100
AcDbLine
 10
32.7
 20
22.273
 30
0.0
 11
32.7
 21
12.573
 31
0.0
  0
LINE
  5
78D
100
AcDbEntity
  8
SCRATCH
100
AcDbLine
 10
32.7
 20
12.573
 30
0.0
 11
22.8
 21
12.573
 31
0.0
  0
LINE
  5
78E
100
AcDbEntity
  8
SCRATCH
100
AcDbLine
 10
22.8
 20
12.573
 30
0.0
 11
22.8
 21
22.273
 31
0.0
  0
LINE
  5
78F
100
AcDbEntity
  8
SCRATCH
100
AcDbLine
 10
22.8
 20
22.273
 30
0.0
 11
32.7
 21
22.273
 31
0.0
  0
LINE
  5
790
100
AcDbEntity
  8
SCRATCH
100
AcDbLine
 10
33.2
 20
22.773
 30
0.0
 11
33.2
 21
12.073
 31
0.0
  0
LINE
  5
791
100
AcDbEntity
  8
SCRATCH
100
AcDbLine
 10
33.2
 20
12.073
 30
0.0
 11
22.3
 21
12.073
 31
0.0
  0
LINE
  5
792
100
AcDbEntity
  8
SCRATCH
100
AcDbLine
 10
22.3
 20
12.073
 30
0.0
 11
22.3
 21
22.773
 31
0.0
  0
LINE
  5
793
100
AcDbEntity
  8
SCRATCH
100
AcDbLine
 10
22.3
 20
22.773
 30
0.0
 11
33.2
 21
22.773
 31
0.0
  0
INSERT
  5
794
100
AcDbEntity
  8
SCRATCH
100
AcDbBlockReference
  2
*X13
 10
-83.571943
 20
98.11168
 30
0.0
 41
-1.0
 50
180.0
1001
ACAD
1000
HATCH
1002
{
1070
    19
1000
ANSI31
1040
10.0
1040
0.0
1000
ASC_BOUNDS
1070
     1
1070
     2
1070
     2
1005
0
1005
0
1000
ASC_SEEDPOINT
1011
-201.718778
1021
122.576717
1031
0.0
1002
}
  0
LINE
  5
795
100
AcDbEntity
  8
SCRATCH
100
AcDbLine
 10
22.8
 20
31.273
 30
0.0
 11
32.7
 21
31.273
 31
0.0
  0
LINE
  5
796
100
AcDbEntity
  8
SCRATCH
100
AcDbLine
 10
32.7
 20
31.273
 30
0.0
 11
32.7
 21
40.973
 31
0.0
  0
LINE
  5
797
100
AcDbEntity
  8
SCRATCH
100
AcDbLine
 10
32.7
 20
40.973
 30
0.0
 11
22.8
 21
40.973
 31
0.0
  0
LINE
  5
798
100
AcDbEntity
  8
SCRATCH
100
AcDbLine
 10
22.8
 20
40.973
 30
0.0
 11
22.8
 21
31.273
 31
0.0
  0
LINE
  5
799
100
AcDbEntity
  8
SCRATCH
100
AcDbLine
 10
22.3
 20
30.773
 30
0.0
 11
33.2
 21
30.773
 31
0.0
  0
LINE
  5
79A
100
AcDbEntity
  8
SCRATCH
100
AcDbLine
 10
33.2
 20
30.773
 30
0.0
 11
33.2
 21
41.473
 31
0.0
  0
LINE
  5
79B
100
AcDbEntity
  8
SCRATCH
100
AcDbLine
 10
33.2
 20
41.473
 30
0.0
 11
22.3
 21
41.473
 31
0.0
  0
LINE
  5
79C
100
AcDbEntity
  8
SCRATCH
100
AcDbLine
 10
22.3
 20
41.473
 30
0.0
 11
22.3
 21
30.773
 31
0.0
  0
INSERT
  5
79D
100
AcDbEntity
  8
SCRATCH
100
AcDbBlockReference
  2
*X14
 10
-83.571943
 20
98.11168
 30
0.0
 41
-1.0
 50
180.0
1001
ACAD
1000
HATCH
1002
{
1070
    19
1000
ANSI31
1040
10.0
1040
0.0
1000
ASC_BOUNDS
1070
     1
1070
     2
1070
     2
1005
0
1005
0
1000
ASC_SEEDPOINT
1011
-201.718778
1021
122.576717
1031
0.0
1002
}
  0
POLYLINE
  5
79E
100
AcDbEntity
  8
SCRATCH
100
AcDb2dPolyline
 66
     1
 10
0.0
 20
0.0
 30
0.0
 70
     1
  0
VERTEX
  5
79F
100
AcDbEntity
  8
SCRATCH
100
AcDbVertex
100
AcDb2dVertex
 10
5.5
 20
1.3
 30
0.0
  0
VERTEX
  5
7A0
100
AcDbEntity
  8
SCRATCH
100
AcDbVertex
100
AcDb2dVertex
 10
5.5
 20
7.0
 30
0.0
  0
VERTEX
  5
7A1
100
AcDbEntity
  8
SCRATCH
100
AcDbVertex
100
AcDb2dVertex
 10
13.8
 20
7.0
 30
0.0
  0
VERTEX
  5
7A2
100
AcDbEntity
  8
SCRATCH
100
AcDbVertex
100
AcDb2dVertex
 10
13.8
 20
1.3
 30
0.0
  0
SEQEND
  5
7A3
100
AcDbEntity
  8
SCRATCH
  0
POLYLINE
  5
7A4
100
AcDbEntity
  8
SCRATCH
100
AcDb2dPolyline
 66
     1
 10
0.0
 20
0.0
 30
0.0
 70
     1
  0
VERTEX
  5
7A5
100
AcDbEntity
  8
SCRATCH
100
AcDbVertex
100
AcDb2dVertex
 10
5.5
 20
7.8
 30
0.0
  0
VERTEX
  5
7A6
100
AcDbEntity
  8
SCRATCH
100
AcDbVertex
100
AcDb2dVertex
 10
5.5
 20
13.5
 30
0.0
  0
VERTEX
  5
7A7
100
AcDbEntity
  8
SCRATCH
100
AcDbVertex
100
AcDb2dVertex
 10
13.8
 20
13.5
 30
0.0
  0
VERTEX
  5
7A8
100
AcDbEntity
  8
SCRATCH
100
AcDbVertex
100
AcDb2dVertex
 10
13.8
 20
7.8
 30
0.0
  0
SEQEND
  5
7A9
100
AcDbEntity
  8
SCRATCH
  0
POLYLINE
  5
7AA
100
AcDbEntity
  8
SCRATCH
100
AcDb2dPolyline
 66
     1
 10
0.0
 20
0.0
 30
0.0
 70
     1
  0
VERTEX
  5
7AB
100
AcDbEntity
  8
SCRATCH
100
AcDbVertex
100
AcDb2dVertex
 10
5.5
 20
14.3
 30
0.0
  0
VERTEX
  5
7AC
100
AcDbEntity
  8
SCRATCH
100
AcDbVertex
100
AcDb2dVertex
 10
5.5
 20
20.0
 30
0.0
  0
VERTEX
  5
7AD
100
AcDbEntity
  8
SCRATCH
100
AcDbVertex
100
AcDb2dVertex
 10
13.8
 20
20.0
 30
0.0
  0
VERTEX
  5
7AE
100
AcDbEntity
  8
SCRATCH
100
AcDbVertex
100
AcDb2dVertex
 10
13.8
 20
14.3
 30
0.0
  0
SEQEND
  5
7AF
100
AcDbEntity
  8
SCRATCH
  0
POLYLINE
  5
7B0
100
AcDbEntity
  8
SCRATCH
100
AcDb2dPolyline
 66
     1
 10
0.0
 20
0.0
 30
0.0
 70
     1
  0
VERTEX
  5
7B1
100
AcDbEntity
  8
SCRATCH
100
AcDbVertex
100
AcDb2dVertex
 10
5.5
 20
20.8
 30
0.0
  0
VERTEX
  5
7B2
100
AcDbEntity
  8
SCRATCH
100
AcDbVertex
100
AcDb2dVertex
 10
5.5
 20
26.5
 30
0.0
  0
VERTEX
  5
7B3
100
AcDbEntity
  8
SCRATCH
100
AcDbVertex
100
AcDb2dVertex
 10
13.8
 20
26.5
 30
0.0
  0
VERTEX
  5
7B4
100
AcDbEntity
  8
SCRATCH
100
AcDbVertex
100
AcDb2dVertex
 10
13.8
 20
20.8
 30
0.0
  0
SEQEND
  5
7B5
100
AcDbEntity
  8
SCRATCH
  0
POLYLINE
  5
7B6
100
AcDbEntity
  8
SCRATCH
100
AcDb2dPolyline
 66
     1
 10
0.0
 20
0.0
 30
0.0
 70
     1
  0
VERTEX
  5
7B7
100
AcDbEntity
  8
SCRATCH
100
AcDbVertex
100
AcDb2dVertex
 10
5.5
 20
27.3
 30
0.0
  0
VERTEX
  5
7B8
100
AcDbEntity
  8
SCRATCH
100
AcDbVertex
100
AcDb2dVertex
 10
5.5
 20
33.0
 30
0.0
  0
VERTEX
  5
7B9
100
AcDbEntity
  8
SCRATCH
100
AcDbVertex
100
AcDb2dVertex
 10
13.8
 20
33.0
 30
0.0
  0
VERTEX
  5
7BA
100
AcDbEntity
  8
SCRATCH
100
AcDbVertex
100
AcDb2dVertex
 10
13.8
 20
27.3
 30
0.0
  0
SEQEND
  5
7BB
100
AcDbEntity
  8
SCRATCH
  0
POLYLINE
  5
7BC
100
AcDbEntity
  8
SCRATCH
100
AcDb2dPolyline
 66
     1
 10
0.0
 20
0.0
 30
0.0
 70
     1
  0
VERTEX
  5
7BD
100
AcDbEntity
  8
SCRATCH
100
AcDbVertex
100
AcDb2dVertex
 10
5.5
 20
33.8
 30
0.0
  0
VERTEX
  5
7BE
100
AcDbEntity
  8
SCRATCH
100
AcDbVertex
100
AcDb2dVertex
 10
5.5
 20
39.5
 30
0.0
  0
VERTEX
  5
7BF
100
AcDbEntity
  8
SCRATCH
100
AcDbVertex
100
AcDb2dVertex
 10
13.8
 20
39.5
 30
0.0
  0
VERTEX
  5
7C0
100
AcDbEntity
  8
SCRATCH
100
AcDbVertex
100
AcDb2dVertex
 10
13.8
 20
33.8
 30
0.0
  0
SEQEND
  5
7C1
100
AcDbEntity
  8
SCRATCH
  0
POLYLINE
  5
7C2
100
AcDbEntity
  8
SCRATCH
100
AcDb2dPolyline
 66
     1
 10
0.0
 20
0.0
 30
0.0
 70
     1
  0
VERTEX
  5
7C3
100
AcDbEntity
  8
SCRATCH
100
AcDbVertex
100
AcDb2dVertex
 10
5.5
 20
40.3
 30
0.0
  0
VERTEX
  5
7C4
100
AcDbEntity
  8
SCRATCH
100
AcDbVertex
100
AcDb2dVertex
 10
5.5
 20
46.0
 30
0.0
  0
VERTEX
  5
7C5
100
AcDbEntity
  8
SCRATCH
100
AcDbVertex
100
AcDb2dVertex
 10
13.8
 20
46.0
 30
0.0
  0
VERTEX
  5
7C6
100
AcDbEntity
  8
SCRATCH
100
AcDbVertex
100
AcDb2dVertex
 10
13.8
 20
40.3
 30
0.0
  0
SEQEND
  5
7C7
100
AcDbEntity
  8
SCRATCH
  0
INSERT
  5
7C8
100
AcDbEntity
  8
SCRATCH
100
AcDbBlockReference
  2
A$C23D
 10
5.589576
 20
1.597768
 30
0.0
 50
270.0
  0
INSERT
  5
7C9
100
AcDbEntity
  8
SCRATCH
100
AcDbBlockReference
  2
A$C23D
 10
5.589576
 20
8.097768
 30
0.0
 50
270.0
  0
INSERT
  5
7CA
100
AcDbEntity
  8
SCRATCH
100
AcDbBlockReference
  2
A$C23D
 10
5.589576
 20
14.597768
 30
0.0
 50
270.0
  0
INSERT
  5
7CB
100
AcDbEntity
  8
SCRATCH
100
AcDbBlockReference
  2
A$C23D
 10
5.589576
 20
21.097768
 30
0.0
 50
270.0
  0
INSERT
  5
7CC
100
AcDbEntity
  8
SCRATCH
100
AcDbBlockReference
  2
A$C23D
 10
5.589576
 20
27.597768
 30
0.0
 50
270.0
  0
INSERT
  5
7CD
100
AcDbEntity
  8
SCRATCH
100
AcDbBlockReference
  2
A$C23D
 10
5.589576
 20
34.097768
 30
0.0
 50
270.0
  0
INSERT
  5
7CE
100
AcDbEntity
  8
SCRATCH
100
AcDbBlockReference
  2
A$C23D
 10
5.589576
 20
40.597768
 30
0.0
 50
270.0
  0
TEXT
  5
7CF
100
AcDbEntity
  8
TEXT
  6
CONTINUOUS
100
AcDbText
 10
18.540068
 20
4.962806
 30
0.0
 40
1.912083
  1
bottom side
100
AcDbText
  0
ENDBLK
  5
7D1
100
AcDbEntity
  8
0
100
AcDbBlockEnd
  0
BLOCK
  5
7EB
100
AcDbEntity
  8
0
100
AcDbBlockBegin
  2
*X16
 70
    65
 10
0.0
 20
0.0
 30
0.0
  3
*X16
  1

  0
LINE
  5
7D4
100
AcDbEntity
  8
0
 62
     0
100
AcDbLine
 10
105.871943
 20
75.819905
 30
0.0
 11
106.371943
 21
76.319905
 31
0.0
  0
LINE
  5
7D5
100
AcDbEntity
  8
0
 62
     0
100
AcDbLine
 10
115.590718
 20
85.53868
 30
0.0
 11
116.090718
 21
86.03868
 31
0.0
  0
LINE
  5
7D6
100
AcDbEntity
  8
0
 62
     0
100
AcDbLine
 10
105.871943
 20
77.587672
 30
0.0
 11
106.371943
 21
78.087672
 31
0.0
  0
LINE
  5
7D7
100
AcDbEntity
  8
0
 62
     0
100
AcDbLine
 10
113.822951
 20
85.53868
 30
0.0
 11
114.322951
 21
86.03868
 31
0.0
  0
LINE
  5
7D8
100
AcDbEntity
  8
0
 62
     0
100
AcDbLine
 10
105.871943
 20
79.355439
 30
0.0
 11
106.371943
 21
79.855439
 31
0.0
  0
LINE
  5
7D9
100
AcDbEntity
  8
0
 62
     0
100
AcDbLine
 10
112.055184
 20
85.53868
 30
0.0
 11
112.555184
 21
86.03868
 31
0.0
  0
LINE
  5
7DA
100
AcDbEntity
  8
0
 62
     0
100
AcDbLine
 10
105.871943
 20
81.123206
 30
0.0
 11
106.371943
 21
81.623206
 31
0.0
  0
LINE
  5
7DB
100
AcDbEntity
  8
0
 62
     0
100
AcDbLine
 10
110.287417
 20
85.53868
 30
0.0
 11
110.787417
 21
86.03868
 31
0.0
  0
LINE
  5
7DC
100
AcDbEntity
  8
0
 62
     0
100
AcDbLine
 10
105.871943
 20
82.890973
 30
0.0
 11
106.371943
 21
83.390973
 31
0.0
  0
LINE
  5
7DD
100
AcDbEntity
  8
0
 62
     0
100
AcDbLine
 10
108.51965
 20
85.53868
 30
0.0
 11
109.01965
 21
86.03868
 31
0.0
  0
LINE
  5
7DE
100
AcDbEntity
  8
0
 62
     0
100
AcDbLine
 10
105.871943
 20
84.65874
 30
0.0
 11
106.371943
 21
85.15874
 31
0.0
  0
LINE
  5
7DF
100
AcDbEntity
  8
0
 62
     0
100
AcDbLine
 10
106.751883
 20
85.53868
 30
0.0
 11
107.251883
 21
86.03868
 31
0.0
  0
LINE
  5
7E0
100
AcDbEntity
  8
0
 62
     0
100
AcDbLine
 10
107.158485
 20
75.33868
 30
0.0
 11
107.658485
 21
75.83868
 31
0.0
  0
LINE
  5
7E1
100
AcDbEntity
  8
0
 62
     0
100
AcDbLine
 10
116.271943
 20
84.452138
 30
0.0
 11
116.771943
 21
84.952138
 31
0.0
  0
LINE
  5
7E2
100
AcDbEntity
  8
0
 62
     0
100
AcDbLine
 10
108.926252
 20
75.33868
 30
0.0
 11
109.426252
 21
75.83868
 31
0.0
  0
LINE
  5
7E3
100
AcDbEntity
  8
0
 62
     0
100
AcDbLine
 10
116.271943
 20
82.684371
 30
0.0
 11
116.771943
 21
83.184371
 31
0.0
  0
LINE
  5
7E4
100
AcDbEntity
  8
0
 62
     0
100
AcDbLine
 10
110.694019
 20
75.33868
 30
0.0
 11
111.194019
 21
75.83868
 31
0.0
  0
LINE
  5
7E5
100
AcDbEntity
  8
0
 62
     0
100
AcDbLine
 10
116.271943
 20
80.916604
 30
0.0
 11
116.771943
 21
81.416604
 31
0.0
  0
LINE
  5
7E6
100
AcDbEntity
  8
0
 62
     0
100
AcDbLine
 10
112.461786
 20
75.33868
 30
0.0
 11
112.961786
 21
75.83868
 31
0.0
  0
LINE
  5
7E7
100
AcDbEntity
  8
0
 62
     0
100
AcDbLine
 10
116.271943
 20
79.148837
 30
0.0
 11
116.771943
 21
79.648837
 31
0.0
  0
LINE
  5
7E8
100
AcDbEntity
  8
0
 62
     0
100
AcDbLine
 10
114.229553
 20
75.33868
 30
0.0
 11
114.729553
 21
75.83868
 31
0.0
  0
LINE
  5
7E9
100
AcDbEntity
  8
0
 62
     0
100
AcDbLine
 10
116.271943
 20
77.38107
 30
0.0
 11
116.771943
 21
77.88107
 31
0.0
  0
LINE
  5
7EA
100
AcDbEntity
  8
0
 62
     0
100
AcDbLine
 10
115.99732
 20
75.33868
 30
0.0
 11
116.771943
 21
76.113303
 31
0.0
  0
ENDBLK
  5
7EC
100
AcDbEntity
  8
0
100
AcDbBlockEnd
  0
BLOCK
  5
806
100
AcDbEntity
  8
0
100
AcDbBlockBegin
  2
*X17
 70
    65
 10
0.0
 20
0.0
 30
0.0
  3
*X17
  1

  0
LINE
  5
7EE
100
AcDbEntity
  8
0
 62
     0
100
AcDbLine
 10
105.871943
 20
58.142235
 30
0.0
 11
106.371943
 21
58.642235
 31
0.0
  0
LINE
  5
7EF
100
AcDbEntity
  8
0
 62
     0
100
AcDbLine
 10
114.568387
 20
66.83868
 30
0.0
 11
115.068387
 21
67.33868
 31
0.0
  0
LINE
  5
7F0
100
AcDbEntity
  8
0
 62
     0
100
AcDbLine
 10
105.871943
 20
59.910002
 30
0.0
 11
106.371943
 21
60.410002
 31
0.0
  0
LINE
  5
7F1
100
AcDbEntity
  8
0
 62
     0
100
AcDbLine
 10
112.80062
 20
66.83868
 30
0.0
 11
113.30062
 21
67.33868
 31
0.0
  0
LINE
  5
7F2
100
AcDbEntity
  8
0
 62
     0
100
AcDbLine
 10
105.871943
 20
61.677769
 30
0.0
 11
106.371943
 21
62.177769
 31
0.0
  0
LINE
  5
7F3
100
AcDbEntity
  8
0
 62
     0
100
AcDbLine
 10
111.032853
 20
66.83868
 30
0.0
 11
111.532853
 21
67.33868
 31
0.0
  0
LINE
  5
7F4
100
AcDbEntity
  8
0
 62
     0
100
AcDbLine
 10
105.871943
 20
63.445536
 30
0.0
 11
106.371943
 21
63.945536
 31
0.0
  0
LINE
  5
7F5
100
AcDbEntity
  8
0
 62
     0
100
AcDbLine
 10
109.265086
 20
66.83868
 30
0.0
 11
109.765086
 21
67.33868
 31
0.0
  0
LINE
  5
7F6
100
AcDbEntity
  8
0
 62
     0
100
AcDbLine
 10
105.871943
 20
65.213303
 30
0.0
 11
106.371943
 21
65.713303
 31
0.0
  0
LINE
  5
7F7
100
AcDbEntity
  8
0
 62
     0
100
AcDbLine
 10
107.49732
 20
66.83868
 30
0.0
 11
107.99732
 21
67.33868
 31
0.0
  0
LINE
  5
7F8
100
AcDbEntity
  8
0
 62
     0
100
AcDbLine
 10
105.871943
 20
66.98107
 30
0.0
 11
106.229553
 21
67.33868
 31
0.0
  0
LINE
  5
7F9
100
AcDbEntity
  8
0
 62
     0
100
AcDbLine
 10
106.136154
 20
56.63868
 30
0.0
 11
106.636154
 21
57.13868
 31
0.0
  0
LINE
  5
7FA
100
AcDbEntity
  8
0
 62
     0
100
AcDbLine
 10
116.271943
 20
66.774469
 30
0.0
 11
116.771943
 21
67.274469
 31
0.0
  0
LINE
  5
7FB
100
AcDbEntity
  8
0
 62
     0
100
AcDbLine
 10
107.903921
 20
56.63868
 30
0.0
 11
108.403921
 21
57.13868
 31
0.0
  0
LINE
  5
7FC
100
AcDbEntity
  8
0
 62
     0
100
AcDbLine
 10
116.271943
 20
65.006702
 30
0.0
 11
116.771943
 21
65.506702
 31
0.0
  0
LINE
  5
7FD
100
AcDbEntity
  8
0
 62
     0
100
AcDbLine
 10
109.671688
 20
56.63868
 30
0.0
 11
110.171688
 21
57.13868
 31
0.0
  0
LINE
  5
7FE
100
AcDbEntity
  8
0
 62
     0
100
AcDbLine
 10
116.271943
 20
63.238935
 30
0.0
 11
116.771943
 21
63.738935
 31
0.0
  0
LINE
  5
7FF
100
AcDbEntity
  8
0
 62
     0
100
AcDbLine
 10
111.439455
 20
56.63868
 30
0.0
 11
111.939455
 21
57.13868
 31
0.0
  0
LINE
  5
800
100
AcDbEntity
  8
0
 62
     0
100
AcDbLine
 10
116.271943
 20
61.471168
 30
0.0
 11
116.771943
 21
61.971168
 31
0.0
  0
LINE
  5
801
100
AcDbEntity
  8
0
 62
     0
100
AcDbLine
 10
113.207222
 20
56.63868
 30
0.0
 11
113.707222
 21
57.13868
 31
0.0
  0
LINE
  5
802
100
AcDbEntity
  8
0
 62
     0
100
AcDbLine
 10
116.271943
 20
59.703401
 30
0.0
 11
116.771943
 21
60.203401
 31
0.0
  0
LINE
  5
803
100
AcDbEntity
  8
0
 62
     0
100
AcDbLine
 10
114.974989
 20
56.63868
 30
0.0
 11
115.474989
 21
57.13868
 31
0.0
  0
LINE
  5
804
100
AcDbEntity
  8
0
 62
     0
100
AcDbLine
 10
116.271943
 20
57.935634
 30
0.0
 11
116.771943
 21
58.435634
 31
0.0
  0
LINE
  5
805
100
AcDbEntity
  8
0
 62
     0
100
AcDbLine
 10
116.742756
 20
56.63868
 30
0.0
 11
116.771943
 21
56.667867
 31
0.0
  0
ENDBLK
  5
807
100
AcDbEntity
  8
0
100
AcDbBlockEnd
  0
BLOCK
  5
868
100
AcDbEntity
  8
0
100
AcDbBlockBegin
  2
L12T-HDI
 70
     0
 10
0.0
 20
0.0
 30
0.0
  3
L12T-HDI
  1

  0
INSERT
  5
809
100
AcDbEntity
  8
CENTER
100
AcDbBlockReference
  2
POST-1
 10
22.8
 20
5.827
 30
0.0
  0
INSERT
  5
80A
100
AcDbEntity
  8
CENTER
100
AcDbBlockReference
  2
POST-1
 10
22.8
 20
24.527
 30
0.0
  0
LINE
  5
80B
100
AcDbEntity
  8
CENTER
100
AcDbLine
 10
-16.397091
 20
14.53001
 30
0.0
 11
65.564048
 21
14.53001
 31
0.0
1001
ACAD
1000
ASC_BOUNDS
1002
{
1070
    19
1005
0
1005
0
1005
0
1005
0
1005
0
1005
0
1005
0
1005
0
1005
0
1005
0
1005
0
1005
0
1005
0
1005
0
1005
0
1005
0
1005
0
1005
0
1005
0
1005
0
1005
0
1005
0
1005
0
1005
0
1005
0
1005
0
1005
0
1005
0
1005
0
1005
0
1005
0
1005
0
1005
0
1005
0
1005
0
1005
0
1005
0
1005
0
1005
0
1005
0
1005
0
1005
0
1005
0
1005
0
1005
0
1005
0
1005
0
1005
0
1005
0
1005
0
1005
0
1005
0
1005
0
1005
0
1005
0
1005
0
1005
0
1005
0
1005
0
1005
0
1005
0
1005
0
1005
0
1005
0
1005
0
1005
0
1005
0
1005
0
1005
0
1005
0
1005
0
1005
0
1005
0
1005
0
1005
0
1005
0
1005
0
1005
0
1005
0
1002
}
  0
LINE
  5
80C
100
AcDbEntity
  8
SCRATCH
 62
     4
100
AcDbLine
 10
41.2
 20
46.8
 30
0.0
 11
41.2
 21
0.0
 31
0.0
  0
LINE
  5
80D
100
AcDbEntity
  8
SCRATCH
100
AcDbLine
 10
34.2
 20
30.347
 30
0.0
 11
34.2
 21
9.707
 31
0.0
  0
LINE
  5
80E
100
AcDbEntity
  8
SCRATCH
100
AcDbLine
 10
40.2
 20
30.347
 30
0.0
 11
40.2
 21
9.707
 31
0.0
  0
LINE
  5
80F
100
AcDbEntity
  8
SCRATCH
 62
     4
100
AcDbLine
 10
0.0
 20
46.8
 30
0.0
 11
0.0
 21
0.0
 31
0.0
  0
LINE
  5
810
100
AcDbEntity
  8
SCRATCH
 62
     4
100
AcDbLine
 10
0.0
 20
0.0
 30
0.0
 11
41.2
 21
0.0
 31
0.0
  0
LINE
  5
811
100
AcDbEntity
  8
SCRATCH
100
AcDbLine
 10
40.2
 20
9.707
 30
0.0
 11
34.2
 21
9.707
 31
0.0
  0
LINE
  5
812
100
AcDbEntity
  8
SCRATCH
 62
     4
100
AcDbLine
 10
0.0
 20
46.8
 30
0.0
 11
41.2
 21
46.8
 31
0.0
  0
LINE
  5
813
100
AcDbEntity
  8
SCRATCH
100
AcDbLine
 10
40.2
 20
30.347
 30
0.0
 11
34.2
 21
30.347
 31
0.0
  0
ELLIPSE
  5
814
100
AcDbEntity
  8
SCRATCH
 62
     4
100
AcDbEllipse
 10
27.3
 20
26.027
 30
0.0
 11
-0.7071067811865497
 21
-0.7071067811865497
 31
0.0
210
0.0
220
0.0
230
1.0
 40
1.0
 41
-0.7853981633974513
 42
0.7853981633974513
  0
LINE
  5
815
100
AcDbEntity
  8
SCRATCH
 62
     4
100
AcDbLine
 10
26.3
 20
26.027
 30
0.0
 11
26.3
 21
32.727
 31
0.0
  0
ELLIPSE
  5
816
100
AcDbEntity
  8
SCRATCH
 62
     4
100
AcDbEllipse
 10
27.3
 20
32.727
 30
0.0
 11
-0.7071067811865497
 21
-0.7071067811865497
 31
0.0
210
0.0
220
0.0
230
1.0
 40
1.0
 41
-2.356194490192341
 42
-0.7853981633974513
  0
LINE
  5
817
100
AcDbEntity
  8
SCRATCH
 62
     4
100
AcDbLine
 10
27.3
 20
33.727
 30
0.0
 11
29.7
 21
33.727
 31
0.0
  0
ELLIPSE
  5
818
100
AcDbEntity
  8
SCRATCH
 62
     4
100
AcDbEllipse
 10
29.7
 20
32.727
 30
0.0
 11
-0.7071067811865497
 21
-0.7071067811865497
 31
0.0
210
0.0
220
0.0
230
1.0
 40
1.0
 41
2.356194490192341
 42
3.926990816987557
  0
LINE
  5
819
100
AcDbEntity
  8
SCRATCH
 62
     4
100
AcDbLine
 10
30.7
 20
32.727
 30
0.0
 11
30.7
 21
26.027
 31
0.0
  0
ELLIPSE
  5
81A
100
AcDbEntity
  8
SCRATCH
 62
     4
100
AcDbEllipse
 10
29.7
 20
26.027
 30
0.0
 11
-0.7071067811865497
 21
-0.7071067811865497
 31
0.0
210
0.0
220
0.0
230
1.0
 40
1.0
 41
0.7853981633974513
 42
2.356194490192341
  0
LINE
  5
81B
100
AcDbEntity
  8
SCRATCH
 62
     4
100
AcDbLine
 10
29.7
 20
25.027
 30
0.0
 11
27.3
 21
25.027
 31
0.0
  0
ELLIPSE
  5
81C
100
AcDbEntity
  8
SCRATCH
 62
     4
100
AcDbEllipse
 10
27.3
 20
7.327
 30
0.0
 11
-0.7071067811865497
 21
-0.7071067811865497
 31
0.0
210
0.0
220
0.0
230
1.0
 40
1.0
 41
-0.7853981633974513
 42
0.7853981633974513
  0
LINE
  5
81D
100
AcDbEntity
  8
SCRATCH
 62
     4
100
AcDbLine
 10
26.3
 20
7.327
 30
0.0
 11
26.3
 21
14.027
 31
0.0
  0
ELLIPSE
  5
81E
100
AcDbEntity
  8
SCRATCH
 62
     4
100
AcDbEllipse
 10
27.3
 20
14.027
 30
0.0
 11
-0.7071067811865497
 21
-0.7071067811865497
 31
0.0
210
0.0
220
0.0
230
1.0
 40
1.0
 41
-2.356194490192341
 42
-0.7853981633974513
  0
LINE
  5
81F
100
AcDbEntity
  8
SCRATCH
 62
     4
100
AcDbLine
 10
27.3
 20
15.027
 30
0.0
 11
29.7
 21
15.027
 31
0.0
  0
ELLIPSE
  5
820
100
AcDbEntity
  8
SCRATCH
 62
     4
100
AcDbEllipse
 10
29.7
 20
14.027
 30
0.0
 11
-0.7071067811865497
 21
-0.7071067811865497
 31
0.0
210
0.0
220
0.0
230
1.0
 40
1.0
 41
2.356194490192341
 42
3.926990816987557
  0
LINE
  5
821
100
AcDbEntity
  8
SCRATCH
 62
     4
100
AcDbLine
 10
30.7
 20
14.027
 30
0.0
 11
30.7
 21
7.327
 31
0.0
  0
ELLIPSE
  5
822
100
AcDbEntity
  8
SCRATCH
 62
     4
100
AcDbEllipse
 10
29.7
 20
7.327
 30
0.0
 11
-0.7071067811865497
 21
-0.7071067811865497
 31
0.0
210
0.0
220
0.0
230
1.0
 40
1.0
 41
0.7853981633974513
 42
2.356194490192341
  0
LINE
  5
823
100
AcDbEntity
  8
SCRATCH
 62
     4
100
AcDbLine
 10
29.7
 20
6.327
 30
0.0
 11
27.3
 21
6.327
 31
0.0
  0
LINE
  5
824
100
AcDbEntity
  8
SCRATCH
100
AcDbLine
 10
32.7
 20
24.527
 30
0.0
 11
32.7
 21
34.227
 31
0.0
  0
LINE
  5
825
100
AcDbEntity
  8
SCRATCH
100
AcDbLine
 10
32.7
 20
34.227
 30
0.0
 11
22.8
 21
34.227
 31
0.0
  0
LINE
  5
826
100
AcDbEntity
  8
SCRATCH
100
AcDbLine
 10
22.8
 20
34.227
 30
0.0
 11
22.8
 21
24.527
 31
0.0
  0
LINE
  5
827
100
AcDbEntity
  8
SCRATCH
100
AcDbLine
 10
22.8
 20
24.527
 30
0.0
 11
32.7
 21
24.527
 31
0.0
  0
LINE
  5
828
100
AcDbEntity
  8
SCRATCH
100
AcDbLine
 10
33.2
 20
24.027
 30
0.0
 11
33.2
 21
34.727
 31
0.0
  0
LINE
  5
829
100
AcDbEntity
  8
SCRATCH
100
AcDbLine
 10
33.2
 20
34.727
 30
0.0
 11
22.3
 21
34.727
 31
0.0
  0
LINE
  5
82A
100
AcDbEntity
  8
SCRATCH
100
AcDbLine
 10
22.3
 20
34.727
 30
0.0
 11
22.3
 21
24.027
 31
0.0
  0
LINE
  5
82B
100
AcDbEntity
  8
SCRATCH
100
AcDbLine
 10
22.3
 20
24.027
 30
0.0
 11
33.2
 21
24.027
 31
0.0
  0
INSERT
  5
82C
100
AcDbEntity
  8
SCRATCH
100
AcDbBlockReference
  2
*X16
 10
-83.571943
 20
-51.31168
 30
0.0
1001
ACAD
1000
HATCH
1002
{
1070
    19
1000
ANSI31
1040
10.0
1040
0.0
1000
ASC_BOUNDS
1070
     1
1070
     2
1070
     2
1005
0
1005
0
1000
ASC_SEEDPOINT
1011
-201.718778
1021
-75.776717
1031
0.0
1002
}
  0
LINE
  5
82D
100
AcDbEntity
  8
SCRATCH
100
AcDbLine
 10
22.8
 20
15.527
 30
0.0
 11
32.7
 21
15.527
 31
0.0
  0
LINE
  5
82E
100
AcDbEntity
  8
SCRATCH
100
AcDbLine
 10
32.7
 20
15.527
 30
0.0
 11
32.7
 21
5.827
 31
0.0
  0
LINE
  5
82F
100
AcDbEntity
  8
SCRATCH
100
AcDbLine
 10
32.7
 20
5.827
 30
0.0
 11
22.8
 21
5.827
 31
0.0
  0
LINE
  5
830
100
AcDbEntity
  8
SCRATCH
100
AcDbLine
 10
22.8
 20
5.827
 30
0.0
 11
22.8
 21
15.527
 31
0.0
  0
LINE
  5
831
100
AcDbEntity
  8
SCRATCH
100
AcDbLine
 10
22.3
 20
16.027
 30
0.0
 11
33.2
 21
16.027
 31
0.0
  0
LINE
  5
832
100
AcDbEntity
  8
SCRATCH
100
AcDbLine
 10
33.2
 20
16.027
 30
0.0
 11
33.2
 21
5.327
 31
0.0
  0
LINE
  5
833
100
AcDbEntity
  8
SCRATCH
100
AcDbLine
 10
33.2
 20
5.327
 30
0.0
 11
22.3
 21
5.327
 31
0.0
  0
LINE
  5
834
100
AcDbEntity
  8
SCRATCH
100
AcDbLine
 10
22.3
 20
5.327
 30
0.0
 11
22.3
 21
16.027
 31
0.0
  0
INSERT
  5
835
100
AcDbEntity
  8
SCRATCH
100
AcDbBlockReference
  2
*X17
 10
-83.571943
 20
-51.31168
 30
0.0
1001
ACAD
1000
HATCH
1002
{
1070
    19
1000
ANSI31
1040
10.0
1040
0.0
1000
ASC_BOUNDS
1070
     1
1070
     2
1070
     2
1005
0
1005
0
1000
ASC_SEEDPOINT
1011
-201.718778
1021
-75.776717
1031
0.0
1002
}
  0
POLYLINE
  5
836
100
AcDbEntity
  8
SCRATCH
100
AcDb2dPolyline
 66
     1
 10
0.0
 20
0.0
 30
0.0
 70
     1
  0
VERTEX
  5
837
100
AcDbEntity
  8
SCRATCH
100
AcDbVertex
100
AcDb2dVertex
 10
5.5
 20
1.3
 30
0.0
  0
VERTEX
  5
838
100
AcDbEntity
  8
SCRATCH
100
AcDbVertex
100
AcDb2dVertex
 10
5.5
 20
7.0
 30
0.0
  0
VERTEX
  5
839
100
AcDbEntity
  8
SCRATCH
100
AcDbVertex
100
AcDb2dVertex
 10
13.8
 20
7.0
 30
0.0
  0
VERTEX
  5
83A
100
AcDbEntity
  8
SCRATCH
100
AcDbVertex
100
AcDb2dVertex
 10
13.8
 20
1.3
 30
0.0
  0
SEQEND
  5
83B
100
AcDbEntity
  8
SCRATCH
  0
POLYLINE
  5
83C
100
AcDbEntity
  8
SCRATCH
100
AcDb2dPolyline
 66
     1
 10
0.0
 20
0.0
 30
0.0
 70
     1
  0
VERTEX
  5
83D
100
AcDbEntity
  8
SCRATCH
100
AcDbVertex
100
AcDb2dVertex
 10
5.5
 20
7.8
 30
0.0
  0
VERTEX
  5
83E
100
AcDbEntity
  8
SCRATCH
100
AcDbVertex
100
AcDb2dVertex
 10
5.5
 20
13.5
 30
0.0
  0
VERTEX
  5
83F
100
AcDbEntity
  8
SCRATCH
100
AcDbVertex
100
AcDb2dVertex
 10
13.8
 20
13.5
 30
0.0
  0
VERTEX
  5
840
100
AcDbEntity
  8
SCRATCH
100
AcDbVertex
100
AcDb2dVertex
 10
13.8
 20
7.8
 30
0.0
  0
SEQEND
  5
841
100
AcDbEntity
  8
SCRATCH
  0
POLYLINE
  5
842
100
AcDbEntity
  8
SCRATCH
100
AcDb2dPolyline
 66
     1
 10
0.0
 20
0.0
 30
0.0
 70
     1
  0
VERTEX
  5
843
100
AcDbEntity
  8
SCRATCH
100
AcDbVertex
100
AcDb2dVertex
 10
5.5
 20
14.3
 30
0.0
  0
VERTEX
  5
844
100
AcDbEntity
  8
SCRATCH
100
AcDbVertex
100
AcDb2dVertex
 10
5.5
 20
20.0
 30
0.0
  0
VERTEX
  5
845
100
AcDbEntity
  8
SCRATCH
100
AcDbVertex
100
AcDb2dVertex
 10
13.8
 20
20.0
 30
0.0
  0
VERTEX
  5
846
100
AcDbEntity
  8
SCRATCH
100
AcDbVertex
100
AcDb2dVertex
 10
13.8
 20
14.3
 30
0.0
  0
SEQEND
  5
847
100
AcDbEntity
  8
SCRATCH
  0
POLYLINE
  5
848
100
AcDbEntity
  8
SCRATCH
100
AcDb2dPolyline
 66
     1
 10
0.0
 20
0.0
 30
0.0
 70
     1
  0
VERTEX
  5
849
100
AcDbEntity
  8
SCRATCH
100
AcDbVertex
100
AcDb2dVertex
 10
5.5
 20
20.8
 30
0.0
  0
VERTEX
  5
84A
100
AcDbEntity
  8
SCRATCH
100
AcDbVertex
100
AcDb2dVertex
 10
5.5
 20
26.5
 30
0.0
  0
VERTEX
  5
84B
100
AcDbEntity
  8
SCRATCH
100
AcDbVertex
100
AcDb2dVertex
 10
13.8
 20
26.5
 30
0.0
  0
VERTEX
  5
84C
100
AcDbEntity
  8
SCRATCH
100
AcDbVertex
100
AcDb2dVertex
 10
13.8
 20
20.8
 30
0.0
  0
SEQEND
  5
84D
100
AcDbEntity
  8
SCRATCH
  0
POLYLINE
  5
84E
100
AcDbEntity
  8
SCRATCH
100
AcDb2dPolyline
 66
     1
 10
0.0
 20
0.0
 30
0.0
 70
     1
  0
VERTEX
  5
84F
100
AcDbEntity
  8
SCRATCH
100
AcDbVertex
100
AcDb2dVertex
 10
5.5
 20
27.3
 30
0.0
  0
VERTEX
  5
850
100
AcDbEntity
  8
SCRATCH
100
AcDbVertex
100
AcDb2dVertex
 10
5.5
 20
33.0
 30
0.0
  0
VERTEX
  5
851
100
AcDbEntity
  8
SCRATCH
100
AcDbVertex
100
AcDb2dVertex
 10
13.8
 20
33.0
 30
0.0
  0
VERTEX
  5
852
100
AcDbEntity
  8
SCRATCH
100
AcDbVertex
100
AcDb2dVertex
 10
13.8
 20
27.3
 30
0.0
  0
SEQEND
  5
853
100
AcDbEntity
  8
SCRATCH
  0
POLYLINE
  5
854
100
AcDbEntity
  8
SCRATCH
100
AcDb2dPolyline
 66
     1
 10
0.0
 20
0.0
 30
0.0
 70
     1
  0
VERTEX
  5
855
100
AcDbEntity
  8
SCRATCH
100
AcDbVertex
100
AcDb2dVertex
 10
5.5
 20
33.8
 30
0.0
  0
VERTEX
  5
856
100
AcDbEntity
  8
SCRATCH
100
AcDbVertex
100
AcDb2dVertex
 10
5.5
 20
39.5
 30
0.0
  0
VERTEX
  5
857
100
AcDbEntity
  8
SCRATCH
100
AcDbVertex
100
AcDb2dVertex
 10
13.8
 20
39.5
 30
0.0
  0
VERTEX
  5
858
100
AcDbEntity
  8
SCRATCH
100
AcDbVertex
100
AcDb2dVertex
 10
13.8
 20
33.8
 30
0.0
  0
SEQEND
  5
859
100
AcDbEntity
  8
SCRATCH
  0
POLYLINE
  5
85A
100
AcDbEntity
  8
SCRATCH
100
AcDb2dPolyline
 66
     1
 10
0.0
 20
0.0
 30
0.0
 70
     1
  0
VERTEX
  5
85B
100
AcDbEntity
  8
SCRATCH
100
AcDbVertex
100
AcDb2dVertex
 10
5.5
 20
40.3
 30
0.0
  0
VERTEX
  5
85C
100
AcDbEntity
  8
SCRATCH
100
AcDbVertex
100
AcDb2dVertex
 10
5.5
 20
46.0
 30
0.0
  0
VERTEX
  5
85D
100
AcDbEntity
  8
SCRATCH
100
AcDbVertex
100
AcDb2dVertex
 10
13.8
 20
46.0
 30
0.0
  0
VERTEX
  5
85E
100
AcDbEntity
  8
SCRATCH
100
AcDbVertex
100
AcDb2dVertex
 10
13.8
 20
40.3
 30
0.0
  0
SEQEND
  5
85F
100
AcDbEntity
  8
SCRATCH
  0
INSERT
  5
860
100
AcDbEntity
  8
SCRATCH
100
AcDbBlockReference
  2
A$C23D
 10
5.589576
 20
1.597768
 30
0.0
 50
270.0
  0
INSERT
  5
861
100
AcDbEntity
  8
SCRATCH
100
AcDbBlockReference
  2
A$C23D
 10
5.589576
 20
8.097768
 30
0.0
 50
270.0
  0
INSERT
  5
862
100
AcDbEntity
  8
SCRATCH
100
AcDbBlockReference
  2
A$C23D
 10
5.589576
 20
14.597768
 30
0.0
 50
270.0
  0
INSERT
  5
863
100
AcDbEntity
  8
SCRATCH
100
AcDbBlockReference
  2
A$C23D
 10
5.589576
 20
21.097768
 30
0.0
 50
270.0
  0
INSERT
  5
864
100
AcDbEntity
  8
SCRATCH
100
AcDbBlockReference
  2
A$C23D
 10
5.589576
 20
27.597768
 30
0.0
 50
270.0
  0
INSERT
  5
865
100
AcDbEntity
  8
SCRATCH
100
AcDbBlockReference
  2
A$C23D
 10
5.589576
 20
34.097768
 30
0.0
 50
270.0
  0
INSERT
  5
866
100
AcDbEntity
  8
SCRATCH
100
AcDbBlockReference
  2
A$C23D
 10
5.589576
 20
40.597768
 30
0.0
 50
270.0
  0
TEXT
  5
867
100
AcDbEntity
  8
TEXT
  6
CONTINUOUS
100
AcDbText
 10
19.78688
 20
40.744121
 30
0.0
 40
2.140987
  1
top side
100
AcDbText
  0
ENDBLK
  5
869
100
AcDbEntity
  8
0
100
AcDbBlockEnd
  0
BLOCK
  5
958
100
AcDbEntity
  8
0
100
AcDbBlockBegin
  2
D-BORDER
 70
     0
 10
0.0
 20
0.0
 30
0.0
  3
D-BORDER
  1

  0
LINE
  5
916
100
AcDbEntity
  8
TEXT
100
AcDbLine
 10
0.125
 20
19.447595
 30
0.0
 11
2.6875
 21
19.447595
 31
0.0
  0
LINE
  5
917
100
AcDbEntity
  8
TEXT
100
AcDbLine
 10
2.6875
 20
19.447595
 30
0.0
 11
2.6875
 21
19.947595
 31
0.0
  0
CIRCLE
  5
918
100
AcDbEntity
  8
TEXT
100
AcDbCircle
 10
0.802871
 20
19.684056
 30
0.0
 40
0.1875
  0
CIRCLE
  5
919
100
AcDbEntity
  8
TEXT
100
AcDbCircle
 10
0.802871
 20
19.684056
 30
0.0
 40
0.09375
  0
LINE
  5
91A
100
AcDbEntity
  8
TEXT
  6
CENTER
100
AcDbLine
 10
0.568951
 20
19.684056
 30
0.0
 11
2.021621
 21
19.684056
 31
0.0
  0
LINE
  5
91B
100
AcDbEntity
  8
TEXT
  6
CENTER
100
AcDbLine
 10
0.802871
 20
19.455375
 30
0.0
 11
0.802871
 21
19.923251
 31
0.0
  0
LINE
  5
91C
100
AcDbEntity
  8
TEXT
100
AcDbLine
 10
1.271621
 20
19.777806
 30
0.0
 11
1.756263
 21
19.871556
 31
0.0
  0
LINE
  5
91D
100
AcDbEntity
  8
TEXT
100
AcDbLine
 10
1.271621
 20
19.590306
 30
0.0
 11
1.756263
 21
19.496556
 31
0.0
  0
LINE
  5
91E
100
AcDbEntity
  8
TEXT
100
AcDbLine
 10
1.271621
 20
19.590306
 30
0.0
 11
1.271621
 21
19.777806
 31
0.0
  0
LINE
  5
91F
100
AcDbEntity
  8
TEXT
100
AcDbLine
 10
1.756263
 20
19.871556
 30
0.0
 11
1.756263
 21
19.496556
 31
0.0
  0
TEXT
  5
920
100
AcDbEntity
  8
TEXT
100
AcDbText
 10
0.3125
 20
19.262423
 30
0.0
 40
0.1
  1
THIRD ANGLE PROJECTION
100
AcDbText
  0
LINE
  5
921
100
AcDbEntity
  8
TEXT
100
AcDbLine
 10
2.6875
 20
19.447595
 30
0.0
 11
2.6875
 21
19.197595
 31
0.0
  0
LINE
  5
922
100
AcDbEntity
  8
TEXT
100
AcDbLine
 10
2.6875
 20
19.197595
 30
0.0
 11
0.125
 21
19.197595
 31
0.0
  0
TEXT
  5
923
100
AcDbEntity
  8
TEXT
100
AcDbText
 10
30.260292
 20
0.244377
 30
0.0
 40
0.065
  1
OF
  7
ADESK2
100
AcDbText
  0
TEXT
  5
924
100
AcDbEntity
  8
TEXT
100
AcDbText
 10
26.500724
 20
0.974951
 30
0.0
 40
0.065
  1
DATE
  7
ADESK2
100
AcDbText
  0
LINE
  5
925
100
AcDbEntity
  8
TEXT
100
AcDbLine
 10
26.377305
 20
1.091501
 30
0.0
 11
26.377305
 21
0.125
 31
0.0
  0
TEXT
  5
926
100
AcDbEntity
  8
TEXT
100
AcDbText
 10
24.957321
 20
0.356501
 30
0.0
 40
0.065
  1
DESIGN
  7
ADESK2
100
AcDbText
  0
TEXT
  5
927
100
AcDbEntity
  8
TEXT
100
AcDbText
 10
24.957321
 20
0.671501
 30
0.0
 40
0.065
  1
CHECKED
  7
ADESK2
100
AcDbText
  0
LINE
  5
928
100
AcDbEntity
  8
TEXT
100
AcDbLine
 10
24.877321
 20
1.091501
 30
0.0
 11
26.877321
 21
1.091501
 31
0.0
  0
TEXT
  5
929
100
AcDbEntity
  8
TEXT
100
AcDbText
 10
30.359702
 20
19.465196
 30
0.0
 40
0.065
  1
APPROVED
  7
ADESK2
100
AcDbText
  0
TEXT
  5
92A
100
AcDbEntity
  8
TEXT
100
AcDbText
 10
29.566002
 20
19.465196
 30
0.0
 40
0.065
  1
DATE
  7
ADESK2
100
AcDbText
  0
TEXT
  5
92B
100
AcDbEntity
  8
TEXT
100
AcDbText
 10
27.500302
 20
19.465196
 30
0.0
 40
0.065
  1
DESCRIPTION
  7
ADESK2
100
AcDbText
  0
TEXT
  5
92C
100
AcDbEntity
  8
TEXT
100
AcDbText
 10
26.198402
 20
19.465196
 30
0.0
 40
0.065
  1
REV
  7
ADESK2
100
AcDbText
  0
TEXT
  5
92D
100
AcDbEntity
  8
TEXT
100
AcDbText
 10
28.328502
 20
19.707396
 30
0.0
 40
0.065
  1
REVISIONS
  7
ADESK2
100
AcDbText
  0
LINE
  5
92E
100
AcDbEntity
  8
TEXT
100
AcDbLine
 10
30.118302
 20
19.374896
 30
0.0
 11
30.118302
 21
19.624896
 31
0.0
  0
LINE
  5
92F
100
AcDbEntity
  8
TEXT
100
AcDbLine
 10
29.238302
 20
19.374896
 30
0.0
 11
29.238302
 21
19.624896
 31
0.0
  0
LINE
  5
930
100
AcDbEntity
  8
TEXT
100
AcDbLine
 10
26.498302
 20
19.374896
 30
0.0
 11
26.498302
 21
19.624896
 31
0.0
  0
LINE
  5
931
100
AcDbEntity
  8
TEXT
100
AcDbLine
 10
26.108049
 20
19.934959
 30
0.0
 11
26.108049
 21
19.374896
 31
0.0
  0
LINE
  5
932
100
AcDbEntity
  8
TEXT
100
AcDbLine
 10
26.108049
 20
19.374896
 30
0.0
 11
31.162356
 21
19.374896
 31
0.0
  0
LINE
  5
933
100
AcDbEntity
  8
TEXT
100
AcDbLine
 10
26.108049
 20
19.624896
 30
0.0
 11
31.162356
 21
19.624896
 31
0.0
  0
TEXT
  5
934
100
AcDbEntity
  8
TEXT
100
AcDbText
 10
30.827821
 20
0.667401
 30
0.0
 40
0.065
  1
REV
  7
ADESK2
100
AcDbText
  0
TEXT
  5
935
100
AcDbEntity
  8
TEXT
100
AcDbText
 10
28.448321
 20
0.667401
 30
0.0
 40
0.065
  1
DWG NO.
  7
ADESK2
100
AcDbText
  0
TEXT
  5
936
100
AcDbEntity
  8
TEXT
100
AcDbText
 10
26.965221
 20
0.667401
 30
0.0
 40
0.065
  1
SIZE
  7
ADESK2
100
AcDbText
  0
TEXT
  5
937
100
AcDbEntity
  8
TEXT
100
AcDbText
 10
29.430121
 20
0.244001
 30
0.0
 40
0.065
  1
SHEET
  7
ADESK2
100
AcDbText
  0
TEXT
  5
938
100
AcDbEntity
  8
TEXT
100
AcDbText
 10
26.929621
 20
0.244001
 30
0.0
 40
0.065
  1
SCALE
  7
ADESK2
100
AcDbText
  0
LINE
  5
939
100
AcDbEntity
  8
TEXT
100
AcDbLine
 10
30.747321
 20
0.401501
 30
0.0
 11
30.747321
 21
0.781501
 31
0.0
  0
LINE
  5
93A
100
AcDbEntity
  8
TEXT
100
AcDbLine
 10
28.377321
 20
0.401501
 30
0.0
 11
28.377321
 21
0.781501
 31
0.0
  0
LINE
  5
93B
100
AcDbEntity
  8
TEXT
100
AcDbLine
 10
27.257321
 20
0.401501
 30
0.0
 11
27.257321
 21
0.781501
 31
0.0
  0
LINE
  5
93C
100
AcDbEntity
  8
TEXT
100
AcDbLine
 10
29.377321
 20
0.125
 30
0.0
 11
29.377321
 21
0.401501
 31
0.0
  0
LINE
  5
93D
100
AcDbEntity
  8
TEXT
100
AcDbLine
 10
27.877321
 20
0.125
 30
0.0
 11
27.877321
 21
0.401501
 31
0.0
  0
LINE
  5
93E
100
AcDbEntity
  8
BORDER
100
AcDbLine
 10
26.877321
 20
0.125
 30
0.0
 11
26.877321
 21
1.901501
 31
0.0
  0
LINE
  5
93F
100
AcDbEntity
  8
BORDER
100
AcDbLine
 10
26.877321
 20
1.401501
 30
0.0
 11
31.149118
 21
1.401501
 31
0.0
  0
LINE
  5
940
100
AcDbEntity
  8
TEXT
100
AcDbLine
 10
26.877321
 20
0.401501
 30
0.0
 11
31.149118
 21
0.401501
 31
0.0
  0
LINE
  5
941
100
AcDbEntity
  8
TEXT
100
AcDbLine
 10
24.877321
 20
0.781501
 30
0.0
 11
31.149118
 21
0.781501
 31
0.0
  0
LINE
  5
942
100
AcDbEntity
  8
TEXT
100
AcDbLine
 10
24.877321
 20
0.466501
 30
0.0
 11
26.877321
 21
0.466501
 31
0.0
  0
LINE
  5
943
100
AcDbEntity
  8
BORDER
100
AcDbLine
 10
24.877321
 20
1.901501
 30
0.0
 11
31.149118
 21
1.901501
 31
0.0
  0
LINE
  5
944
100
AcDbEntity
  8
BORDER
100
AcDbLine
 10
24.877321
 20
0.125
 30
0.0
 11
24.877321
 21
2.324147
 31
0.0
  0
TEXT
  5
945
100
AcDbEntity
  8
TEXT
100
AcDbText
 10
24.945631
 20
0.979964
 30
0.0
 40
0.065
  1
DRAWN
  7
ADESK2
100
AcDbText
  0
TEXT
  5
946
100
AcDbEntity
  8
BORDER
100
AcDbText
 10
25.055285
 20
2.049228
 30
0.0
 40
0.15
  1
UNIVERSITY OF CALIFORNIA @ SANTA BARBARA
100
AcDbText
  0
LINE
  5
947
100
AcDbEntity
  8
BORDER
100
AcDbLine
 10
24.87628
 20
2.324147
 30
0.0
 11
31.149118
 21
2.324147
 31
0.0
  0
LINE
  5
948
100
AcDbEntity
  8
BORDER
100
AcDbLine
 10
31.17142
 20
0.125
 30
0.0
 11
31.17142
 21
19.947595
 31
0.0
  0
LINE
  5
949
100
AcDbEntity
  8
BORDER
100
AcDbLine
 10
0.125
 20
19.947595
 30
0.0
 11
0.125
 21
0.125
 31
0.0
  0
LINE
  5
94A
100
AcDbEntity
  8
BORDER
100
AcDbLine
 10
0.125
 20
0.125
 30
0.0
 11
31.17142
 21
0.125
 31
0.0
  0
TEXT
  5
94B
100
AcDbEntity
  8
TEXT
100
AcDbText
 10
27.328393
 20
0.665354
 30
0.0
 40
0.075
  1
DIRECTORY
100
AcDbText
  0
LINE
  5
94C
100
AcDbEntity
  8
BORDER
100
AcDbLine
 10
0.125
 20
19.947595
 30
0.0
 11
31.17142
 21
19.947595
 31
0.0
  0
TEXT
  5
94D
100
AcDbEntity
  8
BORDER
100
AcDbText
 10
27.564864
 20
1.575566
 30
0.0
 40
0.15
  1
HIGH ENERGY PHYSICS
100
AcDbText
  0
TEXT
  5
94E
100
AcDbEntity
  8
BORDER
100
AcDbText
 10
27.001167
 20
0.434778
 30
0.0
 40
0.2
  1
D
100
AcDbText
  0
TEXT
  5
94F
100
AcDbEntity
  8
TEXT
100
AcDbText
 10
25.106606
 20
1.785089
 30
0.0
 40
0.065
  1
UNLESS OTHERWISE SPECIFIED:
  7
ADESK2
 72
     1
 11
25.877321
 21
1.785089
 31
0.0
100
AcDbText
  0
TEXT
  5
950
100
AcDbEntity
  8
TEXT
100
AcDbText
 10
25.180892
 20
1.679851
 30
0.0
 40
0.065
  1
DIMENSIONS ARE IN INCHES
  7
ADESK2
 72
     1
 11
25.877321
 21
1.679851
 31
0.0
100
AcDbText
  0
TEXT
  5
951
100
AcDbEntity
  8
TEXT
100
AcDbText
 10
25.57863
 20
1.574613
 30
0.0
 40
0.065
  1
TOLERANCES
  7
ADESK2
 72
     1
 11
25.877321
 21
1.574613
 31
0.0
100
AcDbText
  0
TEXT
  5
952
100
AcDbEntity
  8
TEXT
100
AcDbText
 10
25.192279
 20
1.466743
 30
0.0
 40
0.065
  1
DECIMALS
  7
ADESK2
100
AcDbText
  0
TEXT
  5
953
100
AcDbEntity
  8
TEXT
100
AcDbText
 10
25.192279
 20
1.361505
 30
0.0
 40
0.065
  1
.XX  %%P .05
  7
ADESK2
100
AcDbText
  0
TEXT
  5
954
100
AcDbEntity
  8
TEXT
100
AcDbText
 10
25.192279
 20
1.256267
 30
0.0
 40
0.065
  1
.XXX %%P .005
  7
ADESK2
100
AcDbText
  0
TEXT
  5
955
100
AcDbEntity
  8
TEXT
100
AcDbText
 10
25.262916
 20
1.153744
 30
0.0
 40
0.065
  1
DO NOT SCALE DRAWING
  7
ADESK2
 72
     1
 11
25.877321
 21
1.153744
 31
0.0
100
AcDbText
  0
TEXT
  5
956
100
AcDbEntity
  8
TEXT
100
AcDbText
 10
26.056176
 20
1.466743
 30
0.0
 40
0.065
  1
ANGULAR
  7
ADESK2
100
AcDbText
  0
TEXT
  5
957
100
AcDbEntity
  8
TEXT
100
AcDbText
 10
26.056176
 20
1.361505
 30
0.0
 40
0.065
  1
  %%P 0.5%%D
  7
ADESK2
100
AcDbText
  0
ENDBLK
  5
959
100
AcDbEntity
  8
0
100
AcDbBlockEnd
  0
BLOCK
  5
A24
100
AcDbEntity
  8
0
100
AcDbBlockBegin
  2
*U21
 70
    65
 10
0.0
 20
0.0
 30
0.0
  3
*U21
  1
*TB
  0
CIRCLE
  5
A25
100
AcDbEntity
  8
COOLING
100
AcDbCircle
 10
0.0
 20
0.0
 30
0.0
 40
0.1875
  0
CIRCLE
  5
A26
100
AcDbEntity
  8
COOLING
100
AcDbCircle
 10
0.0
 20
0.0
 30
0.0
 40
0.1005
  0
LINE
  5
A27
100
AcDbEntity
  8
CENTER
100
AcDbLine
 10
-0.0625
 20
0.0
 30
0.0
 11
0.0625
 21
0.0
 31
0.0
  0
LINE
  5
A28
100
AcDbEntity
  8
CENTER
100
AcDbLine
 10
0.0
 20
-0.0625
 30
0.0
 11
0.0
 21
0.0625
 31
0.0
  0
LINE
  5
A29
100
AcDbEntity
  8
CENTER
100
AcDbLine
 10
0.125
 20
0.0
 30
0.0
 11
0.3125
 21
0.0
 31
0.0
  0
LINE
  5
A2A
100
AcDbEntity
  8
CENTER
100
AcDbLine
 10
0.0
 20
0.125
 30
0.0
 11
0.0
 21
0.3125
 31
0.0
  0
LINE
  5
A2B
100
AcDbEntity
  8
CENTER
100
AcDbLine
 10
-0.125
 20
0.0
 30
0.0
 11
-0.3125
 21
0.0
 31
0.0
  0
LINE
  5
A2C
100
AcDbEntity
  8
CENTER
100
AcDbLine
 10
0.0
 20
-0.125
 30
0.0
 11
0.0
 21
-0.3125
 31
0.0
  0
ENDBLK
  5
A2D
100
AcDbEntity
  8
0
100
AcDbBlockEnd
  0
BLOCK
  5
A31
100
AcDbEntity
  8
0
100
AcDbBlockBegin
  2
*U22
 70
    65
 10
0.0
 20
0.0
 30
0.0
  3
*U22
  1
*TB
  0
CIRCLE
  5
A32
100
AcDbEntity
  8
COOLING
100
AcDbCircle
 10
0.0
 20
0.0
 30
0.0
 40
0.125
  0
LINE
  5
A33
100
AcDbEntity
  8
CENTER
100
AcDbLine
 10
-0.041667
 20
0.0
 30
0.0
 11
0.041667
 21
0.0
 31
0.0
  0
LINE
  5
A34
100
AcDbEntity
  8
CENTER
100
AcDbLine
 10
0.0
 20
-0.041667
 30
0.0
 11
0.0
 21
0.041667
 31
0.0
  0
LINE
  5
A35
100
AcDbEntity
  8
CENTER
100
AcDbLine
 10
0.083333
 20
0.0
 30
0.0
 11
0.25
 21
0.0
 31
0.0
  0
LINE
  5
A36
100
AcDbEntity
  8
CENTER
100
AcDbLine
 10
0.0
 20
0.083333
 30
0.0
 11
0.0
 21
0.25
 31
0.0
  0
LINE
  5
A37
100
AcDbEntity
  8
CENTER
100
AcDbLine
 10
-0.083333
 20
0.0
 30
0.0
 11
-0.25
 21
0.0
 31
0.0
  0
LINE
  5
A38
100
AcDbEntity
  8
CENTER
100
AcDbLine
 10
0.0
 20
-0.083333
 30
0.0
 11
0.0
 21
-0.25
 31
0.0
  0
ENDBLK
  5
A39
100
AcDbEntity
  8
0
100
AcDbBlockEnd
  0
BLOCK
  5
A49
100
AcDbEntity
  8
0
100
AcDbBlockBegin
  2
*U23
 70
    65
 10
0.0
 20
0.0
 30
0.0
  3
*U23
  1
*TB
  0
LINE
  5
A4A
100
AcDbEntity
  8
COOLING
100
AcDbLine
 10
0.0
 20
0.0795
 30
0.0
 11
3.0
 21
0.0795
 31
0.0
  0
LINE
  5
A4B
100
AcDbEntity
  8
COOLING
100
AcDbLine
 10
0.0
 20
-0.0795
 30
0.0
 11
3.0
 21
-0.0795
 31
0.0
  0
POLYLINE
  5
A4C
100
AcDbEntity
  8
HIDDEN
100
AcDb2dPolyline
 66
     1
 10
0.0
 20
0.0
 30
0.0
  0
VERTEX
  5
A4D
100
AcDbEntity
  8
HIDDEN
100
AcDbVertex
100
AcDb2dVertex
 10
0.0
 20
0.095
 30
0.0
  0
VERTEX
  5
A4E
100
AcDbEntity
  8
HIDDEN
100
AcDbVertex
100
AcDb2dVertex
 10
0.38
 20
0.095
 30
0.0
  0
VERTEX
  5
A4F
100
AcDbEntity
  8
HIDDEN
100
AcDbVertex
100
AcDb2dVertex
 10
0.38
 20
-0.095
 30
0.0
  0
VERTEX
  5
A50
100
AcDbEntity
  8
HIDDEN
100
AcDbVertex
100
AcDb2dVertex
 10
0.0
 20
-0.095
 30
0.0
  0
SEQEND
  5
A51
100
AcDbEntity
  8
HIDDEN
  0
LINE
  5
A52
100
AcDbEntity
  8
CENTER
100
AcDbLine
 10
-0.125
 20
0.0
 30
0.0
 11
3.125
 21
0.0
 31
0.0
  0
ENDBLK
  5
A53
100
AcDbEntity
  8
0
100
AcDbBlockEnd
  0
BLOCK
  5
B5B
100
AcDbEntity
  8
0
100
AcDbBlockBegin
  2
*U24
 70
    65
 10
0.0
 20
0.0
 30
0.0
  3
*U24
  1
*TB
  0
CIRCLE
  5
B5C
100
AcDbEntity
  8
C-FIBER
100
AcDbCircle
 10
0.0
 20
0.0
 30
0.0
 40
0.1005
  0
LINE
  5
B5D
100
AcDbEntity
  8
CENTER
100
AcDbLine
 10
-0.0335
 20
0.0
 30
0.0
 11
0.0335
 21
0.0
 31
0.0
  0
LINE
  5
B5E
100
AcDbEntity
  8
CENTER
100
AcDbLine
 10
0.0
 20
-0.0335
 30
0.0
 11
0.0
 21
0.0335
 31
0.0
  0
LINE
  5
B5F
100
AcDbEntity
  8
CENTER
100
AcDbLine
 10
0.067
 20
0.0
 30
0.0
 11
0.2255
 21
0.0
 31
0.0
  0
LINE
  5
B60
100
AcDbEntity
  8
CENTER
100
AcDbLine
 10
0.0
 20
0.067
 30
0.0
 11
0.0
 21
0.2255
 31
0.0
  0
LINE
  5
B61
100
AcDbEntity
  8
CENTER
100
AcDbLine
 10
-0.067
 20
0.0
 30
0.0
 11
-0.2255
 21
0.0
 31
0.0
  0
LINE
  5
B62
100
AcDbEntity
  8
CENTER
100
AcDbLine
 10
0.0
 20
-0.067
 30
0.0
 11
0.0
 21
-0.2255
 31
0.0
  0
ENDBLK
  5
B63
100
AcDbEntity
  8
0
100
AcDbBlockEnd
  0
BLOCK
  5
B78
100
AcDbEntity
  8
0
100
AcDbBlockBegin
  2
*U25
 70
    65
 10
0.0
 20
0.0
 30
0.0
  3
*U25
  1
*TB
  0
CIRCLE
  5
B79
100
AcDbEntity
  8
BASE
100
AcDbCircle
 10
0.0
 20
0.0
 30
0.0
 40
0.125
  0
LINE
  5
B7A
100
AcDbEntity
  8
CENTER
100
AcDbLine
 10
-0.041667
 20
0.0
 30
0.0
 11
0.041667
 21
0.0
 31
0.0
  0
LINE
  5
B7B
100
AcDbEntity
  8
CENTER
100
AcDbLine
 10
0.0
 20
-0.041667
 30
0.0
 11
0.0
 21
0.041667
 31
0.0
  0
LINE
  5
B7C
100
AcDbEntity
  8
CENTER
100
AcDbLine
 10
0.083333
 20
0.0
 30
0.0
 11
0.25
 21
0.0
 31
0.0
  0
LINE
  5
B7D
100
AcDbEntity
  8
CENTER
100
AcDbLine
 10
0.0
 20
0.083333
 30
0.0
 11
0.0
 21
0.25
 31
0.0
  0
LINE
  5
B7E
100
AcDbEntity
  8
CENTER
100
AcDbLine
 10
-0.083333
 20
0.0
 30
0.0
 11
-0.25
 21
0.0
 31
0.0
  0
LINE
  5
B7F
100
AcDbEntity
  8
CENTER
100
AcDbLine
 10
0.0
 20
-0.083333
 30
0.0
 11
0.0
 21
-0.25
 31
0.0
  0
ENDBLK
  5
B80
100
AcDbEntity
  8
0
100
AcDbBlockEnd
  0
BLOCK
  5
B9A
100
AcDbEntity
  8
0
100
AcDbBlockBegin
  2
*U26
 70
    65
 10
0.0
 20
0.0
 30
0.0
  3
*U26
  1
*TB
  0
CIRCLE
  5
B9B
100
AcDbEntity
  8
C-FIBER
100
AcDbCircle
 10
0.0
 20
0.0
 30
0.0
 40
0.125
  0
LINE
  5
B9C
100
AcDbEntity
  8
CENTER
100
AcDbLine
 10
-0.041667
 20
0.0
 30
0.0
 11
0.041667
 21
0.0
 31
0.0
  0
LINE
  5
B9D
100
AcDbEntity
  8
CENTER
100
AcDbLine
 10
0.0
 20
-0.041667
 30
0.0
 11
0.0
 21
0.041667
 31
0.0
  0
LINE
  5
B9E
100
AcDbEntity
  8
CENTER
100
AcDbLine
 10
0.083333
 20
0.0
 30
0.0
 11
0.25
 21
0.0
 31
0.0
  0
LINE
  5
B9F
100
AcDbEntity
  8
CENTER
100
AcDbLine
 10
0.0
 20
0.083333
 30
0.0
 11
0.0
 21
0.25
 31
0.0
  0
LINE
  5
BA0
100
AcDbEntity
  8
CENTER
100
AcDbLine
 10
-0.083333
 20
0.0
 30
0.0
 11
-0.25
 21
0.0
 31
0.0
  0
LINE
  5
BA1
100
AcDbEntity
  8
CENTER
100
AcDbLine
 10
0.0
 20
-0.083333
 30
0.0
 11
0.0
 21
-0.25
 31
0.0
  0
ENDBLK
  5
BA2
100
AcDbEntity
  8
0
100
AcDbBlockEnd
  0
BLOCK
  5
BB8
100
AcDbEntity
  8
0
100
AcDbBlockBegin
  2
*U27
 70
    65
 10
0.0
 20
0.0
 30
0.0
  3
*U27
  1
*TB
  0
CIRCLE
  5
BB9
100
AcDbEntity
  8
BASE
100
AcDbCircle
 10
0.0
 20
0.0
 30
0.0
 40
0.07475
  0
CIRCLE
  5
BBA
100
AcDbEntity
  8
HIDDEN
100
AcDbCircle
 10
0.0
 20
0.0
 30
0.0
 40
0.095
  0
LINE
  5
BBB
100
AcDbEntity
  8
CENTER
100
AcDbLine
 10
-0.024917
 20
0.0
 30
0.0
 11
0.024917
 21
0.0
 31
0.0
  0
LINE
  5
BBC
100
AcDbEntity
  8
CENTER
100
AcDbLine
 10
0.0
 20
-0.024917
 30
0.0
 11
0.0
 21
0.024917
 31
0.0
  0
LINE
  5
BBD
100
AcDbEntity
  8
CENTER
100
AcDbLine
 10
0.049833
 20
0.0
 30
0.0
 11
0.19975
 21
0.0
 31
0.0
  0
LINE
  5
BBE
100
AcDbEntity
  8
CENTER
100
AcDbLine
 10
0.0
 20
0.049833
 30
0.0
 11
0.0
 21
0.19975
 31
0.0
  0
LINE
  5
BBF
100
AcDbEntity
  8
CENTER
100
AcDbLine
 10
-0.049833
 20
0.0
 30
0.0
 11
-0.19975
 21
0.0
 31
0.0
  0
LINE
  5
BC0
100
AcDbEntity
  8
CENTER
100
AcDbLine
 10
0.0
 20
-0.049833
 30
0.0
 11
0.0
 21
-0.19975
 31
0.0
  0
ENDBLK
  5
BC1
100
AcDbEntity
  8
0
100
AcDbBlockEnd
  0
BLOCK
  5
BFF
100
AcDbEntity
  8
0
100
AcDbBlockBegin
  2
*U28
 70
    65
 10
0.0
 20
0.0
 30
0.0
  3
*U28
  1
*TB
  0
CIRCLE
  5
C00
100
AcDbEntity
  8
BASE
100
AcDbCircle
 10
0.0
 20
0.0
 30
0.0
 40
0.05325
  0
CIRCLE
  5
C01
100
AcDbEntity
  8
HIDDEN
100
AcDbCircle
 10
0.0
 20
0.0
 30
0.0
 40
0.069
  0
LINE
  5
C02
100
AcDbEntity
  8
CENTER
100
AcDbLine
 10
-0.01775
 20
0.0
 30
0.0
 11
0.01775
 21
0.0
 31
0.0
  0
LINE
  5
C03
100
AcDbEntity
  8
CENTER
100
AcDbLine
 10
0.0
 20
-0.01775
 30
0.0
 11
0.0
 21
0.01775
 31
0.0
  0
LINE
  5
C04
100
AcDbEntity
  8
CENTER
100
AcDbLine
 10
0.0355
 20
0.0
 30
0.0
 11
0.17825
 21
0.0
 31
0.0
  0
LINE
  5
C05
100
AcDbEntity
  8
CENTER
100
AcDbLine
 10
0.0
 20
0.0355
 30
0.0
 11
0.0
 21
0.17825
 31
0.0
  0
LINE
  5
C06
100
AcDbEntity
  8
CENTER
100
AcDbLine
 10
-0.0355
 20
0.0
 30
0.0
 11
-0.17825
 21
0.0
 31
0.0
  0
LINE
  5
C07
100
AcDbEntity
  8
CENTER
100
AcDbLine
 10
0.0
 20
-0.0355
 30
0.0
 11
0.0
 21
-0.17825
 31
0.0
  0
ENDBLK
  5
C08
100
AcDbEntity
  8
0
100
AcDbBlockEnd
  0
BLOCK
  5
C5F
100
AcDbEntity
  8
0
100
AcDbBlockBegin
  2
*U29
 70
    65
 10
0.0
 20
0.0
 30
0.0
  3
*U29
  1
*TB
  0
POLYLINE
  5
C60
100
AcDbEntity
  8
BOARD
100
AcDb2dPolyline
 66
     1
 10
0.0
 20
0.0
 30
0.0
 70
     1
  0
VERTEX
  5
C61
100
AcDbEntity
  8
BOARD
100
AcDbVertex
100
AcDb2dVertex
 10
-0.057
 20
0.061
 30
0.0
 42
1.0
  0
VERTEX
  5
C62
100
AcDbEntity
  8
BOARD
100
AcDbVertex
100
AcDb2dVertex
 10
-0.057
 20
-0.061
 30
0.0
  0
VERTEX
  5
C63
100
AcDbEntity
  8
BOARD
100
AcDbVertex
100
AcDb2dVertex
 10
0.057
 20
-0.061
 30
0.0
 42
1.0
  0
VERTEX
  5
C64
100
AcDbEntity
  8
BOARD
100
AcDbVertex
100
AcDb2dVertex
 10
0.057
 20
0.061
 30
0.0
  0
SEQEND
  5
C65
100
AcDbEntity
  8
BOARD
  0
LINE
  5
C66
100
AcDbEntity
  8
CENTER
100
AcDbLine
 10
-0.077333
 20
0.0
 30
0.0
 11
-0.036667
 21
0.0
 31
0.0
  0
LINE
  5
C67
100
AcDbEntity
  8
CENTER
100
AcDbLine
 10
-0.057
 20
-0.020333
 30
0.0
 11
-0.057
 21
0.020333
 31
0.0
  0
LINE
  5
C68
100
AcDbEntity
  8
CENTER
100
AcDbLine
 10
-0.016333
 20
0.0
 30
0.0
 11
0.129
 21
0.0
 31
0.0
  0
LINE
  5
C69
100
AcDbEntity
  8
CENTER
100
AcDbLine
 10
-0.057
 20
0.040667
 30
0.0
 11
-0.057
 21
0.186
 31
0.0
  0
LINE
  5
C6A
100
AcDbEntity
  8
CENTER
100
AcDbLine
 10
-0.097667
 20
0.0
 30
0.0
 11
-0.243
 21
0.0
 31
0.0
  0
LINE
  5
C6B
100
AcDbEntity
  8
CENTER
100
AcDbLine
 10
-0.057
 20
-0.040667
 30
0.0
 11
-0.057
 21
-0.186
 31
0.0
  0
LINE
  5
C6C
100
AcDbEntity
  8
CENTER
100
AcDbLine
 10
0.036667
 20
0.0
 30
0.0
 11
0.077333
 21
0.0
 31
0.0
  0
LINE
  5
C6D
100
AcDbEntity
  8
CENTER
100
AcDbLine
 10
0.057
 20
-0.020333
 30
0.0
 11
0.057
 21
0.020333
 31
0.0
  0
LINE
  5
C6E
100
AcDbEntity
  8
CENTER
100
AcDbLine
 10
0.097667
 20
0.0
 30
0.0
 11
0.243
 21
0.0
 31
0.0
  0
LINE
  5
C6F
100
AcDbEntity
  8
CENTER
100
AcDbLine
 10
0.057
 20
0.040667
 30
0.0
 11
0.057
 21
0.186
 31
0.0
  0
LINE
  5
C70
100
AcDbEntity
  8
CENTER
100
AcDbLine
 10
0.016333
 20
0.0
 30
0.0
 11
-0.129
 21
0.0
 31
0.0
  0
LINE
  5
C71
100
AcDbEntity
  8
CENTER
100
AcDbLine
 10
0.057
 20
-0.040667
 30
0.0
 11
0.057
 21
-0.186
 31
0.0
  0
ENDBLK
  5
C72
100
AcDbEntity
  8
0
100
AcDbBlockEnd
  0
BLOCK
  5
D00
100
AcDbEntity
  8
0
100
AcDbBlockBegin
  2
*U30
 70
    65
 10
0.0
 20
0.0
 30
0.0
  3
*U30
  1
*TB
  0
CIRCLE
  5
D01
100
AcDbEntity
  8
STRAIN-R
100
AcDbCircle
 10
0.0
 20
0.0
 30
0.0
 40
0.05325
  0
CIRCLE
  5
D02
100
AcDbEntity
  8
HIDDEN
100
AcDbCircle
 10
0.0
 20
0.0
 30
0.0
 40
0.069
  0
LINE
  5
D03
100
AcDbEntity
  8
CENTER
100
AcDbLine
 10
-0.01775
 20
0.0
 30
0.0
 11
0.01775
 21
0.0
 31
0.0
  0
LINE
  5
D04
100
AcDbEntity
  8
CENTER
100
AcDbLine
 10
0.0
 20
-0.01775
 30
0.0
 11
0.0
 21
0.01775
 31
0.0
  0
LINE
  5
D05
100
AcDbEntity
  8
CENTER
100
AcDbLine
 10
0.0355
 20
0.0
 30
0.0
 11
0.17825
 21
0.0
 31
0.0
  0
LINE
  5
D06
100
AcDbEntity
  8
CENTER
100
AcDbLine
 10
0.0
 20
0.0355
 30
0.0
 11
0.0
 21
0.17825
 31
0.0
  0
LINE
  5
D07
100
AcDbEntity
  8
CENTER
100
AcDbLine
 10
-0.0355
 20
0.0
 30
0.0
 11
-0.17825
 21
0.0
 31
0.0
  0
LINE
  5
D08
100
AcDbEntity
  8
CENTER
100
AcDbLine
 10
0.0
 20
-0.0355
 30
0.0
 11
0.0
 21
-0.17825
 31
0.0
  0
ENDBLK
  5
D09
100
AcDbEntity
  8
0
100
AcDbBlockEnd
  0
BLOCK
  5
DD1
100
AcDbEntity
  8
0
100
AcDbBlockBegin
  2
*U31
 70
    65
 10
0.0
 20
0.0
 30
0.0
  3
*U31
  1
*TB
  0
CIRCLE
  5
DD2
100
AcDbEntity
  8
BOARD
100
AcDbCircle
 10
0.0
 20
0.0
 30
0.0
 40
0.055
  0
LINE
  5
DD3
100
AcDbEntity
  8
CENTER
100
AcDbLine
 10
-0.018333
 20
0.0
 30
0.0
 11
0.018333
 21
0.0
 31
0.0
  0
LINE
  5
DD4
100
AcDbEntity
  8
CENTER
100
AcDbLine
 10
0.0
 20
-0.018333
 30
0.0
 11
0.0
 21
0.018333
 31
0.0
  0
LINE
  5
DD5
100
AcDbEntity
  8
CENTER
100
AcDbLine
 10
0.036667
 20
0.0
 30
0.0
 11
0.18
 21
0.0
 31
0.0
  0
LINE
  5
DD6
100
AcDbEntity
  8
CENTER
100
AcDbLine
 10
0.0
 20
0.036667
 30
0.0
 11
0.0
 21
0.18
 31
0.0
  0
LINE
  5
DD7
100
AcDbEntity
  8
CENTER
100
AcDbLine
 10
-0.036667
 20
0.0
 30
0.0
 11
-0.18
 21
0.0
 31
0.0
  0
LINE
  5
DD8
100
AcDbEntity
  8
CENTER
100
AcDbLine
 10
0.0
 20
-0.036667
 30
0.0
 11
0.0
 21
-0.18
 31
0.0
  0
ENDBLK
  5
DD9
100
AcDbEntity
  8
0
100
AcDbBlockEnd
  0
BLOCK
  5
E41
100
AcDbEntity
  8
0
100
AcDbBlockBegin
  2
*U32
 70
    65
 10
0.0
 20
0.0
 30
0.0
  3
*U32
  1
*TB
  0
CIRCLE
  5
E42
100
AcDbEntity
  8
STRAIN-R
100
AcDbCircle
 10
0.0
 20
0.0
 30
0.0
 40
0.0445
  0
CIRCLE
  5
E43
100
AcDbEntity
  8
HIDDEN
100
AcDbCircle
 10
0.0
 20
0.0
 30
0.0
 40
0.056
  0
LINE
  5
E44
100
AcDbEntity
  8
CENTER
100
AcDbLine
 10
-0.014833
 20
0.0
 30
0.0
 11
0.014833
 21
0.0
 31
0.0
  0
LINE
  5
E45
100
AcDbEntity
  8
CENTER
100
AcDbLine
 10
0.0
 20
-0.014833
 30
0.0
 11
0.0
 21
0.014833
 31
0.0
  0
LINE
  5
E46
100
AcDbEntity
  8
CENTER
100
AcDbLine
 10
0.029667
 20
0.0
 30
0.0
 11
0.1695
 21
0.0
 31
0.0
  0
LINE
  5
E47
100
AcDbEntity
  8
CENTER
100
AcDbLine
 10
0.0
 20
0.029667
 30
0.0
 11
0.0
 21
0.1695
 31
0.0
  0
LINE
  5
E48
100
AcDbEntity
  8
CENTER
100
AcDbLine
 10
-0.029667
 20
0.0
 30
0.0
 11
-0.1695
 21
0.0
 31
0.0
  0
LINE
  5
E49
100
AcDbEntity
  8
CENTER
100
AcDbLine
 10
0.0
 20
-0.029667
 30
0.0
 11
0.0
 21
-0.1695
 31
0.0
  0
ENDBLK
  5
E4A
100
AcDbEntity
  8
0
100
AcDbBlockEnd
  0
BLOCK
  5
E5C
100
AcDbEntity
  8
0
100
AcDbBlockBegin
  2
*U33
 70
    65
 10
0.0
 20
0.0
 30
0.0
  3
*U33
  1
*TB
  0
POLYLINE
  5
E5D
100
AcDbEntity
  8
C-FIBER
100
AcDb2dPolyline
 66
     1
 10
0.0
 20
0.0
 30
0.0
 70
     1
  0
VERTEX
  5
E5E
100
AcDbEntity
  8
C-FIBER
100
AcDbVertex
100
AcDb2dVertex
 10
-0.01
 20
0.1005
 30
0.0
 42
1.0
  0
VERTEX
  5
E5F
100
AcDbEntity
  8
C-FIBER
100
AcDbVertex
100
AcDb2dVertex
 10
-0.01
 20
-0.1005
 30
0.0
  0
VERTEX
  5
E60
100
AcDbEntity
  8
C-FIBER
100
AcDbVertex
100
AcDb2dVertex
 10
0.01
 20
-0.1005
 30
0.0
 42
1.0
  0
VERTEX
  5
E61
100
AcDbEntity
  8
C-FIBER
100
AcDbVertex
100
AcDb2dVertex
 10
0.01
 20
0.1005
 30
0.0
  0
SEQEND
  5
E62
100
AcDbEntity
  8
C-FIBER
  0
LINE
  5
E63
100
AcDbEntity
  8
CENTER
100
AcDbLine
 10
-0.0435
 20
0.0
 30
0.0
 11
0.0235
 21
0.0
 31
0.0
  0
LINE
  5
E64
100
AcDbEntity
  8
CENTER
100
AcDbLine
 10
-0.01
 20
-0.0335
 30
0.0
 11
-0.01
 21
0.0335
 31
0.0
  0
LINE
  5
E65
100
AcDbEntity
  8
CENTER
100
AcDbLine
 10
0.057
 20
0.0
 30
0.0
 11
0.2155
 21
0.0
 31
0.0
  0
LINE
  5
E66
100
AcDbEntity
  8
CENTER
100
AcDbLine
 10
-0.01
 20
0.067
 30
0.0
 11
-0.01
 21
0.2255
 31
0.0
  0
LINE
  5
E67
100
AcDbEntity
  8
CENTER
100
AcDbLine
 10
-0.077
 20
0.0
 30
0.0
 11
-0.2355
 21
0.0
 31
0.0
  0
LINE
  5
E68
100
AcDbEntity
  8
CENTER
100
AcDbLine
 10
-0.01
 20
-0.067
 30
0.0
 11
-0.01
 21
-0.2255
 31
0.0
  0
LINE
  5
E69
100
AcDbEntity
  8
CENTER
100
AcDbLine
 10
-0.0235
 20
0.0
 30
0.0
 11
0.0435
 21
0.0
 31
0.0
  0
LINE
  5
E6A
100
AcDbEntity
  8
CENTER
100
AcDbLine
 10
0.01
 20
-0.0335
 30
0.0
 11
0.01
 21
0.0335
 31
0.0
  0
LINE
  5
E6B
100
AcDbEntity
  8
CENTER
100
AcDbLine
 10
0.077
 20
0.0
 30
0.0
 11
0.2355
 21
0.0
 31
0.0
  0
LINE
  5
E6C
100
AcDbEntity
  8
CENTER
100
AcDbLine
 10
0.01
 20
0.067
 30
0.0
 11
0.01
 21
0.2255
 31
0.0
  0
LINE
  5
E6D
100
AcDbEntity
  8
CENTER
100
AcDbLine
 10
-0.057
 20
0.0
 30
0.0
 11
-0.2155
 21
0.0
 31
0.0
  0
LINE
  5
E6E
100
AcDbEntity
  8
CENTER
100
AcDbLine
 10
0.01
 20
-0.067
 30
0.0
 11
0.01
 21
-0.2255
 31
0.0
  0
ENDBLK
  5
E6F
100
AcDbEntity
  8
0
100
AcDbBlockEnd
  0
BLOCK
  5
E81
100
AcDbEntity
  8
0
100
AcDbBlockBegin
  2
*U34
 70
    65
 10
0.0
 20
0.0
 30
0.0
  3
*U34
  1
*TB
  0
LINE
  5
E82
100
AcDbEntity
  8
HIDDEN
100
AcDbLine
 10
0.0
 20
0.1105
 30
0.0
 11
0.25
 21
0.1105
 31
0.0
  0
LINE
  5
E83
100
AcDbEntity
  8
HIDDEN
100
AcDbLine
 10
0.0
 20
-0.1105
 30
0.0
 11
0.25
 21
-0.1105
 31
0.0
  0
LINE
  5
E84
100
AcDbEntity
  8
CENTER
100
AcDbLine
 10
-0.125
 20
0.01
 30
0.0
 11
0.375
 21
0.01
 31
0.0
  0
LINE
  5
E85
100
AcDbEntity
  8
CENTER
100
AcDbLine
 10
-0.125
 20
-0.01
 30
0.0
 11
0.375
 21
-0.01
 31
0.0
  0
ENDBLK
  5
E86
100
AcDbEntity
  8
0
100
AcDbBlockEnd
  0
BLOCK
  5
E89
100
AcDbEntity
  8
0
100
AcDbBlockBegin
  2
*U35
 70
    65
 10
0.0
 20
0.0
 30
0.0
  3
*U35
  1
*TB
  0
LINE
  5
E8A
100
AcDbEntity
  8
HIDDEN
100
AcDbLine
 10
0.0
 20
0.07475
 30
0.0
 11
0.47
 21
0.07475
 31
0.0
  0
LINE
  5
E8B
100
AcDbEntity
  8
HIDDEN
100
AcDbLine
 10
0.0
 20
-0.07475
 30
0.0
 11
0.47
 21
-0.07475
 31
0.0
  0
LINE
  5
E8C
100
AcDbEntity
  8
HIDDEN
100
AcDbLine
 10
0.0
 20
0.095
 30
0.0
 11
0.47
 21
0.095
 31
0.0
  0
LINE
  5
E8D
100
AcDbEntity
  8
HIDDEN
100
AcDbLine
 10
0.0
 20
-0.095
 30
0.0
 11
0.47
 21
-0.095
 31
0.0
  0
LINE
  5
E8E
100
AcDbEntity
  8
CENTER
100
AcDbLine
 10
-0.125
 20
0.0
 30
0.0
 11
0.595
 21
0.0
 31
0.0
  0
ENDBLK
  5
E8F
100
AcDbEntity
  8
0
100
AcDbBlockEnd
  0
BLOCK
  5
E93
100
AcDbEntity
  8
0
100
AcDbBlockBegin
  2
*U36
 70
    65
 10
0.0
 20
0.0
 30
0.0
  3
*U36
  1
*TB
  0
POLYLINE
  5
E94
100
AcDbEntity
  8
SCREW
100
AcDb2dPolyline
 66
     1
 10
0.0
 20
0.0
 30
0.0
 70
     1
  0
VERTEX
  5
E95
100
AcDbEntity
  8
SCREW
100
AcDbVertex
100
AcDb2dVertex
 10
0.0
 20
0.25
 30
0.0
  0
VERTEX
  5
E96
100
AcDbEntity
  8
SCREW
100
AcDbVertex
100
AcDb2dVertex
 10
-0.049
 20
0.25
 30
0.0
  0
VERTEX
  5
E97
100
AcDbEntity
  8
SCREW
100
AcDbVertex
100
AcDb2dVertex
 10
-0.049
 20
-0.25
 30
0.0
  0
VERTEX
  5
E98
100
AcDbEntity
  8
SCREW
100
AcDbVertex
100
AcDb2dVertex
 10
0.0
 20
-0.25
 30
0.0
  0
SEQEND
  5
E99
100
AcDbEntity
  8
SCREW
  0
LINE
  5
E9A
100
AcDbEntity
  8
HIDDEN
100
AcDbLine
 10
-0.049
 20
0.1095
 30
0.0
 11
0.0
 21
0.1095
 31
0.0
  0
LINE
  5
E9B
100
AcDbEntity
  8
HIDDEN
100
AcDbLine
 10
-0.049
 20
-0.1095
 30
0.0
 11
0.0
 21
-0.1095
 31
0.0
  0
LINE
  5
E9C
100
AcDbEntity
  8
CENTER
100
AcDbLine
 10
-0.174
 20
0.0
 30
0.0
 11
0.125
 21
0.0
 31
0.0
  0
ENDBLK
  5
E9D
100
AcDbEntity
  8
0
100
AcDbBlockEnd
  0
BLOCK
  5
EA1
100
AcDbEntity
  8
0
100
AcDbBlockBegin
  2
*U37
 70
    65
 10
0.0
 20
0.0
 30
0.0
  3
*U37
  1
*TB
  0
POLYLINE
  5
EA2
100
AcDbEntity
  8
SCREW
100
AcDb2dPolyline
 66
     1
 10
0.0
 20
0.0
 30
0.0
  0
VERTEX
  5
EA3
100
AcDbEntity
  8
SCREW
100
AcDbVertex
100
AcDb2dVertex
 10
-0.174375
 20
0.15625
 30
0.0
  0
VERTEX
  5
EA4
100
AcDbEntity
  8
SCREW
100
AcDbVertex
100
AcDb2dVertex
 10
-0.19
 20
0.140625
 30
0.0
  0
VERTEX
  5
EA5
100
AcDbEntity
  8
SCREW
100
AcDbVertex
100
AcDb2dVertex
 10
-0.19
 20
-0.140625
 30
0.0
  0
VERTEX
  5
EA6
100
AcDbEntity
  8
SCREW
100
AcDbVertex
100
AcDb2dVertex
 10
-0.174375
 20
-0.15625
 30
0.0
  0
VERTEX
  5
EA7
100
AcDbEntity
  8
SCREW
100
AcDbVertex
100
AcDb2dVertex
 10
0.0
 20
-0.15625
 30
0.0
  0
VERTEX
  5
EA8
100
AcDbEntity
  8
SCREW
100
AcDbVertex
100
AcDb2dVertex
 10
0.0
 20
0.15625
 30
0.0
  0
VERTEX
  5
EA9
100
AcDbEntity
  8
SCREW
100
AcDbVertex
100
AcDb2dVertex
 10
-0.174375
 20
0.15625
 30
0.0
  0
VERTEX
  5
EAA
100
AcDbEntity
  8
SCREW
100
AcDbVertex
100
AcDb2dVertex
 10
-0.174375
 20
-0.15625
 30
0.0
  0
SEQEND
  5
EAB
100
AcDbEntity
  8
SCREW
  0
POLYLINE
  5
EAC
100
AcDbEntity
  8
SCREW
100
AcDb2dPolyline
 66
     1
 10
0.0
 20
0.0
 30
0.0
  0
VERTEX
  5
EAD
100
AcDbEntity
  8
SCREW
100
AcDbVertex
100
AcDb2dVertex
 10
0.0
 20
0.095
 30
0.0
  0
VERTEX
  5
EAE
100
AcDbEntity
  8
SCREW
100
AcDbVertex
100
AcDb2dVertex
 10
0.9752
 20
0.095
 30
0.0
  0
VERTEX
  5
EAF
100
AcDbEntity
  8
SCREW
100
AcDbVertex
100
AcDb2dVertex
 10
1.0
 20
0.0702
 30
0.0
  0
VERTEX
  5
EB0
100
AcDbEntity
  8
SCREW
100
AcDbVertex
100
AcDb2dVertex
 10
1.0
 20
-0.0702
 30
0.0
  0
VERTEX
  5
EB1
100
AcDbEntity
  8
SCREW
100
AcDbVertex
100
AcDb2dVertex
 10
0.9752
 20
-0.095
 30
0.0
  0
VERTEX
  5
EB2
100
AcDbEntity
  8
SCREW
100
AcDbVertex
100
AcDb2dVertex
 10
0.0
 20
-0.095
 30
0.0
  0
SEQEND
  5
EB3
100
AcDbEntity
  8
SCREW
  0
LINE
  5
EB4
100
AcDbEntity
  8
SCREW
100
AcDbLine
 10
0.9752
 20
0.095
 30
0.0
 11
0.9752
 21
-0.095
 31
0.0
  0
LINE
  5
EB5
100
AcDbEntity
  8
HIDDEN
100
AcDbLine
 10
0.0
 20
0.0702
 30
0.0
 11
0.9752
 21
0.0702
 31
0.0
  0
LINE
  5
EB6
100
AcDbEntity
  8
HIDDEN
100
AcDbLine
 10
0.0
 20
-0.0702
 30
0.0
 11
0.9752
 21
-0.0702
 31
0.0
  0
LINE
  5
EB7
100
AcDbEntity
  8
CENTER
100
AcDbLine
 10
-0.315
 20
0.0
 30
0.0
 11
1.125
 21
0.0
 31
0.0
  0
ENDBLK
  5
EB8
100
AcDbEntity
  8
0
100
AcDbBlockEnd
  0
BLOCK
  5
F1D
100
AcDbEntity
  8
0
100
AcDbBlockBegin
  2
*U38
 70
    65
 10
0.0
 20
0.0
 30
0.0
  3
*U38
  1
*TB
  0
CIRCLE
  5
F1E
100
AcDbEntity
  8
LID
100
AcDbCircle
 10
0.0
 20
0.0
 30
0.0
 40
0.09375
  0
LINE
  5
F1F
100
AcDbEntity
  8
CENTER
100
AcDbLine
 10
-0.03125
 20
0.0
 30
0.0
 11
0.03125
 21
0.0
 31
0.0
  0
LINE
  5
F20
100
AcDbEntity
  8
CENTER
100
AcDbLine
 10
0.0
 20
-0.03125
 30
0.0
 11
0.0
 21
0.03125
 31
0.0
  0
LINE
  5
F21
100
AcDbEntity
  8
CENTER
100
AcDbLine
 10
0.0625
 20
0.0
 30
0.0
 11
0.21875
 21
0.0
 31
0.0
  0
LINE
  5
F22
100
AcDbEntity
  8
CENTER
100
AcDbLine
 10
0.0
 20
0.0625
 30
0.0
 11
0.0
 21
0.21875
 31
0.0
  0
LINE
  5
F23
100
AcDbEntity
  8
CENTER
100
AcDbLine
 10
-0.0625
 20
0.0
 30
0.0
 11
-0.21875
 21
0.0
 31
0.0
  0
LINE
  5
F24
100
AcDbEntity
  8
CENTER
100
AcDbLine
 10
0.0
 20
-0.0625
 30
0.0
 11
0.0
 21
-0.21875
 31
0.0
  0
ENDBLK
  5
F25
100
AcDbEntity
  8
0
100
AcDbBlockEnd
  0
BLOCK
  5
F53
100
AcDbEntity
  8
0
100
AcDbBlockBegin
  2
*U39
 70
    65
 10
0.0
 20
0.0
 30
0.0
  3
*U39
  1
*TB
  0
CIRCLE
  5
F54
100
AcDbEntity
  8
C-FIBER
100
AcDbCircle
 10
0.0
 20
0.0
 30
0.0
 40
0.1005
  0
LINE
  5
F55
100
AcDbEntity
  8
CENTER
100
AcDbLine
 10
-0.0335
 20
0.0
 30
0.0
 11
0.0335
 21
0.0
 31
0.0
  0
LINE
  5
F56
100
AcDbEntity
  8
CENTER
100
AcDbLine
 10
0.0
 20
-0.0335
 30
0.0
 11
0.0
 21
0.0335
 31
0.0
  0
LINE
  5
F57
100
AcDbEntity
  8
CENTER
100
AcDbLine
 10
0.067
 20
0.0
 30
0.0
 11
0.2255
 21
0.0
 31
0.0
  0
LINE
  5
F58
100
AcDbEntity
  8
CENTER
100
AcDbLine
 10
0.0
 20
0.067
 30
0.0
 11
0.0
 21
0.2255
 31
0.0
  0
LINE
  5
F59
100
AcDbEntity
  8
CENTER
100
AcDbLine
 10
-0.067
 20
0.0
 30
0.0
 11
-0.2255
 21
0.0
 31
0.0
  0
LINE
  5
F5A
100
AcDbEntity
  8
CENTER
100
AcDbLine
 10
0.0
 20
-0.067
 30
0.0
 11
0.0
 21
-0.2255
 31
0.0
  0
ENDBLK
  5
F5B
100
AcDbEntity
  8
0
100
AcDbBlockEnd
  0
BLOCK
  5
F8D
100
AcDbEntity
  8
0
100
AcDbBlockBegin
  2
*U40
 70
    65
 10
0.0
 20
0.0
 30
0.0
  3
*U40
  1
*TB
  0
CIRCLE
  5
F8E
100
AcDbEntity
  8
C-FIBER
100
AcDbCircle
 10
0.0
 20
0.0
 30
0.0
 40
0.07475
  0
CIRCLE
  5
F8F
100
AcDbEntity
  8
HIDDEN
100
AcDbCircle
 10
0.0
 20
0.0
 30
0.0
 40
0.095
  0
LINE
  5
F90
100
AcDbEntity
  8
CENTER
100
AcDbLine
 10
-0.024917
 20
0.0
 30
0.0
 11
0.024917
 21
0.0
 31
0.0
  0
LINE
  5
F91
100
AcDbEntity
  8
CENTER
100
AcDbLine
 10
0.0
 20
-0.024917
 30
0.0
 11
0.0
 21
0.024917
 31
0.0
  0
LINE
  5
F92
100
AcDbEntity
  8
CENTER
100
AcDbLine
 10
0.049833
 20
0.0
 30
0.0
 11
0.19975
 21
0.0
 31
0.0
  0
LINE
  5
F93
100
AcDbEntity
  8
CENTER
100
AcDbLine
 10
0.0
 20
0.049833
 30
0.0
 11
0.0
 21
0.19975
 31
0.0
  0
LINE
  5
F94
100
AcDbEntity
  8
CENTER
100
AcDbLine
 10
-0.049833
 20
0.0
 30
0.0
 11
-0.19975
 21
0.0
 31
0.0
  0
LINE
  5
F95
100
AcDbEntity
  8
CENTER
100
AcDbLine
 10
0.0
 20
-0.049833
 30
0.0
 11
0.0
 21
-0.19975
 31
0.0
  0
ENDBLK
  5
F96
100
AcDbEntity
  8
0
100
AcDbBlockEnd
  0
BLOCK
  5
FB1
100
AcDbEntity
  8
0
100
AcDbBlockBegin
  2
*U41
 70
    65
 10
0.0
 20
0.0
 30
0.0
  3
*U41
  1
*TB
  0
CIRCLE
  5
FB2
100
AcDbEntity
  8
C-FIBER
100
AcDbCircle
 10
0.0
 20
0.0
 30
0.0
 40
0.14065
  0
CIRCLE
  5
FB3
100
AcDbEntity
  8
C-FIBER
100
AcDbCircle
 10
0.0
 20
0.0
 30
0.0
 40
0.07475
  0
LINE
  5
FB4
100
AcDbEntity
  8
CENTER
100
AcDbLine
 10
-0.046883
 20
0.0
 30
0.0
 11
0.046883
 21
0.0
 31
0.0
  0
LINE
  5
FB5
100
AcDbEntity
  8
CENTER
100
AcDbLine
 10
0.0
 20
-0.046883
 30
0.0
 11
0.0
 21
0.046883
 31
0.0
  0
LINE
  5
FB6
100
AcDbEntity
  8
CENTER
100
AcDbLine
 10
0.093767
 20
0.0
 30
0.0
 11
0.26565
 21
0.0
 31
0.0
  0
LINE
  5
FB7
100
AcDbEntity
  8
CENTER
100
AcDbLine
 10
0.0
 20
0.093767
 30
0.0
 11
0.0
 21
0.26565
 31
0.0
  0
LINE
  5
FB8
100
AcDbEntity
  8
CENTER
100
AcDbLine
 10
-0.093767
 20
0.0
 30
0.0
 11
-0.26565
 21
0.0
 31
0.0
  0
LINE
  5
FB9
100
AcDbEntity
  8
CENTER
100
AcDbLine
 10
0.0
 20
-0.093767
 30
0.0
 11
0.0
 21
-0.26565
 31
0.0
  0
ENDBLK
  5
FBA
100
AcDbEntity
  8
0
100
AcDbBlockEnd
  0
BLOCK
  5
1007
100
AcDbEntity
  8
0
100
AcDbBlockBegin
  2
*U42
 70
    65
 10
0.0
 20
0.0
 30
0.0
  3
*U42
  1
*TB
  0
CIRCLE
  5
1008
100
AcDbEntity
  8
BASE
100
AcDbCircle
 10
0.0
 20
0.0
 30
0.0
 40
0.15625
  0
CIRCLE
  5
1009
100
AcDbEntity
  8
BASE
100
AcDbCircle
 10
0.0
 20
0.0
 30
0.0
 40
0.0885
  0
LINE
  5
100A
100
AcDbEntity
  8
CENTER
100
AcDbLine
 10
-0.052083
 20
0.0
 30
0.0
 11
0.052083
 21
0.0
 31
0.0
  0
LINE
  5
100B
100
AcDbEntity
  8
CENTER
100
AcDbLine
 10
0.0
 20
-0.052083
 30
0.0
 11
0.0
 21
0.052083
 31
0.0
  0
LINE
  5
100C
100
AcDbEntity
  8
CENTER
100
AcDbLine
 10
0.104167
 20
0.0
 30
0.0
 11
0.28125
 21
0.0
 31
0.0
  0
LINE
  5
100D
100
AcDbEntity
  8
CENTER
100
AcDbLine
 10
0.0
 20
0.104167
 30
0.0
 11
0.0
 21
0.28125
 31
0.0
  0
LINE
  5
100E
100
AcDbEntity
  8
CENTER
100
AcDbLine
 10
-0.104167
 20
0.0
 30
0.0
 11
-0.28125
 21
0.0
 31
0.0
  0
LINE
  5
100F
100
AcDbEntity
  8
CENTER
100
AcDbLine
 10
0.0
 20
-0.104167
 30
0.0
 11
0.0
 21
-0.28125
 31
0.0
  0
ENDBLK
  5
1010
100
AcDbEntity
  8
0
100
AcDbBlockEnd
  0
BLOCK
  5
1016
100
AcDbEntity
  8
0
100
AcDbBlockBegin
  2
*U43
 70
    65
 10
0.0
 20
0.0
 30
0.0
  3
*U43
  1
*TB
  0
CIRCLE
  5
1017
100
AcDbEntity
  8
STRAIN-R
100
AcDbCircle
 10
0.0
 20
0.0
 30
0.0
 40
0.068
  0
CIRCLE
  5
1018
100
AcDbEntity
  8
HIDDEN
100
AcDbCircle
 10
0.0
 20
0.0
 30
0.0
 40
0.082
  0
LINE
  5
1019
100
AcDbEntity
  8
CENTER
100
AcDbLine
 10
-0.022667
 20
0.0
 30
0.0
 11
0.022667
 21
0.0
 31
0.0
  0
LINE
  5
101A
100
AcDbEntity
  8
CENTER
100
AcDbLine
 10
0.0
 20
-0.022667
 30
0.0
 11
0.0
 21
0.022667
 31
0.0
  0
LINE
  5
101B
100
AcDbEntity
  8
CENTER
100
AcDbLine
 10
0.045333
 20
0.0
 30
0.0
 11
0.193
 21
0.0
 31
0.0
  0
LINE
  5
101C
100
AcDbEntity
  8
CENTER
100
AcDbLine
 10
0.0
 20
0.045333
 30
0.0
 11
0.0
 21
0.193
 31
0.0
  0
LINE
  5
101D
100
AcDbEntity
  8
CENTER
100
AcDbLine
 10
-0.045333
 20
0.0
 30
0.0
 11
-0.193
 21
0.0
 31
0.0
  0
LINE
  5
101E
100
AcDbEntity
  8
CENTER
100
AcDbLine
 10
0.0
 20
-0.045333
 30
0.0
 11
0.0
 21
-0.193
 31
0.0
  0
ENDBLK
  5
101F
100
AcDbEntity
  8
0
100
AcDbBlockEnd
  0
BLOCK
  5
1038
100
AcDbEntity
  8
0
100
AcDbBlockBegin
  2
M1-2SCREW
 70
    64
 10
0.0
 20
0.0
 30
0.0
  3
M1-2SCREW
  1

  0
LINE
  5
1039
100
AcDbEntity
  8
CENTER
100
AcDbLine
 10
0.0
 20
0.042187
 30
0.0
 11
0.0
 21
-0.042888
 31
0.0
  0
CIRCLE
  5
103A
100
AcDbEntity
  8
COOLING
100
AcDbCircle
 10
0.0
 20
0.0
 30
0.0
 40
0.0236
  0
LINE
  5
103B
100
AcDbEntity
  8
CENTER
100
AcDbLine
 10
0.044884
 20
0.0
 30
0.0
 11
-0.044734
 21
0.0
 31
0.0
  0
CIRCLE
  5
103C
100
AcDbEntity
  8
HIDDEN
100
AcDbCircle
 10
0.0
 20
0.0
 30
0.0
 40
0.018274
  0
ENDBLK
  5
103D
100
AcDbEntity
  8
0
100
AcDbBlockEnd
  0
BLOCK
  5
1047
100
AcDbEntity
  8
0
100
AcDbBlockBegin
  2
*U45
 70
    65
 10
0.0
 20
0.0
 30
0.0
  3
*U45
  1
*TB
  0
CIRCLE
  5
1048
100
AcDbEntity
  8
COOLING
100
AcDbCircle
 10
0.0
 20
0.0
 30
0.0
 40
0.019685
  0
LINE
  5
1049
100
AcDbEntity
  8
CENTER
100
AcDbLine
 10
-0.006562
 20
0.0
 30
0.0
 11
0.006562
 21
0.0
 31
0.0
  0
LINE
  5
104A
100
AcDbEntity
  8
CENTER
100
AcDbLine
 10
0.0
 20
-0.006562
 30
0.0
 11
0.0
 21
0.006562
 31
0.0
  0
LINE
  5
104B
100
AcDbEntity
  8
CENTER
100
AcDbLine
 10
0.013123
 20
0.0
 30
0.0
 11
0.144685
 21
0.0
 31
0.0
  0
LINE
  5
104C
100
AcDbEntity
  8
CENTER
100
AcDbLine
 10
0.0
 20
0.013123
 30
0.0
 11
0.0
 21
0.144685
 31
0.0
  0
LINE
  5
104D
100
AcDbEntity
  8
CENTER
100
AcDbLine
 10
-0.013123
 20
0.0
 30
0.0
 11
-0.144685
 21
0.0
 31
0.0
  0
LINE
  5
104E
100
AcDbEntity
  8
CENTER
100
AcDbLine
 10
0.0
 20
-0.013123
 30
0.0
 11
0.0
 21
-0.144685
 31
0.0
  0
ENDBLK
  5
104F
100
AcDbEntity
  8
0
100
AcDbBlockEnd
  0
BLOCK
  5
10B8
100
AcDbEntity
  8
0
100
AcDbBlockBegin
  2
*U46
 70
    65
 10
0.0
 20
0.0
 30
0.0
  3
*U46
  1
*TB
  0
CIRCLE
  5
10B0
100
AcDbEntity
  8
COOLING
100
AcDbCircle
 10
0.0
 20
0.0
 30
0.0
 40
0.0795
  0
CIRCLE
  5
10B1
100
AcDbEntity
  8
HIDDEN
100
AcDbCircle
 10
0.0
 20
0.0
 30
0.0
 40
0.095
  0
LINE
  5
10B2
100
AcDbEntity
  8
CENTER
100
AcDbLine
 10
-0.0265
 20
0.0
 30
0.0
 11
0.0265
 21
0.0
 31
0.0
  0
LINE
  5
10B3
100
AcDbEntity
  8
CENTER
100
AcDbLine
 10
0.0
 20
-0.0265
 30
0.0
 11
0.0
 21
0.0265
 31
0.0
  0
LINE
  5
10B4
100
AcDbEntity
  8
CENTER
100
AcDbLine
 10
0.053
 20
0.0
 30
0.0
 11
0.2045
 21
0.0
 31
0.0
  0
LINE
  5
10B5
100
AcDbEntity
  8
CENTER
100
AcDbLine
 10
0.0
 20
0.053
 30
0.0
 11
0.0
 21
0.2045
 31
0.0
  0
LINE
  5
10B6
100
AcDbEntity
  8
CENTER
100
AcDbLine
 10
-0.053
 20
0.0
 30
0.0
 11
-0.2045
 21
0.0
 31
0.0
  0
LINE
  5
10B7
100
AcDbEntity
  8
CENTER
100
AcDbLine
 10
0.0
 20
-0.053
 30
0.0
 11
0.0
 21
-0.2045
 31
0.0
  0
ENDBLK
  5
10B9
100
AcDbEntity
  8
0
100
AcDbBlockEnd
  0
BLOCK
  5
10C8
100
AcDbEntity
  8
COOLING
100
AcDbBlockBegin
  2
A$C22
 70
     0
 10
0.0
 20
0.0
 30
0.0
  3
A$C22
  1

  0
POLYLINE
  5
10BB
100
AcDbEntity
  8
COOLING
100
AcDb2dPolyline
 66
     1
 10
0.0
 20
0.0
 30
0.0
 70
     1
  0
VERTEX
  5
10BC
100
AcDbEntity
  8
COOLING
100
AcDbVertex
100
AcDb2dVertex
 10
-0.914717
 20
0.021013
 30
0.0
  0
VERTEX
  5
10BD
100
AcDbEntity
  8
COOLING
100
AcDbVertex
100
AcDb2dVertex
 10
-0.914717
 20
0.396013
 30
0.0
  0
VERTEX
  5
10BE
100
AcDbEntity
  8
COOLING
100
AcDbVertex
100
AcDb2dVertex
 10
1.210283
 20
0.396013
 30
0.0
  0
VERTEX
  5
10BF
100
AcDbEntity
  8
COOLING
100
AcDbVertex
100
AcDb2dVertex
 10
1.210283
 20
0.021013
 30
0.0
  0
SEQEND
  5
10C0
100
AcDbEntity
  8
COOLING
  0
POLYLINE
  5
10C1
100
AcDbEntity
  8
COOLING
100
AcDb2dPolyline
 66
     1
 10
0.0
 20
0.0
 30
0.0
  0
VERTEX
  5
10C2
100
AcDbEntity
  8
COOLING
100
AcDbVertex
100
AcDb2dVertex
 10
0.258085
 20
0.396013
 30
0.0
  0
VERTEX
  5
10C3
100
AcDbEntity
  8
COOLING
100
AcDbVertex
100
AcDb2dVertex
 10
0.258085
 20
0.520996
 30
0.0
  0
VERTEX
  5
10C4
100
AcDbEntity
  8
COOLING
100
AcDbVertex
100
AcDb2dVertex
 10
0.647848
 20
0.520996
 30
0.0
  0
VERTEX
  5
10C5
100
AcDbEntity
  8
COOLING
100
AcDbVertex
100
AcDb2dVertex
 10
0.647848
 20
0.396013
 30
0.0
  0
SEQEND
  5
10C6
100
AcDbEntity
  8
COOLING
  0
INSERT
  5
10C7
100
AcDbEntity
  8
COOLING
100
AcDbBlockReference
  2
*U46
 10
0.210283
 20
0.208513
 30
0.0
1001
TB_S_MPD
1070
   100
1000
TAP
1070
   101
1000
TOOLBOX 13.0 TAP 2.0
1070
   112
1000
(.19) 10-32 UNF TAPPED HOLE
1070
   102
1000
Near side
1070
   103
1000
ANSI-Number
1070
   104
1000
tap_
1070
   105
1000
_usn
1070
   304
1040
0.0
1070
   305
1040
0.0
1070
   313
1040
0.19
1070
   306
1040
0.159
1070
   302
1040
0.0
1070
   303
1040
0.0
1070
   307
1040
0.0
1070
   300
1040
0.125
1070
   311
1040
0.0312
1070
   111
1000
#10-32
1070
   116
1000
T
1070
   308
1040
3.0
1070
   309
1040
0.38
  0
ENDBLK
  5
10C9
100
AcDbEntity
  8
COOLING
100
AcDbBlockEnd
  0
BLOCK
  5
10D4
100
AcDbEntity
  8
0
100
AcDbBlockBegin
  2
*U48
 70
    65
 10
0.0
 20
0.0
 30
0.0
  3
*U48
  1
*TB
  0
CIRCLE
  5
10CC
100
AcDbEntity
  8
COOLING
100
AcDbCircle
 10
0.0
 20
0.0
 30
0.0
 40
0.0795
  0
CIRCLE
  5
10CD
100
AcDbEntity
  8
HIDDEN
100
AcDbCircle
 10
0.0
 20
0.0
 30
0.0
 40
0.095
  0
LINE
  5
10CE
100
AcDbEntity
  8
CENTER
100
AcDbLine
 10
-0.0265
 20
0.0
 30
0.0
 11
0.0265
 21
0.0
 31
0.0
  0
LINE
  5
10CF
100
AcDbEntity
  8
CENTER
100
AcDbLine
 10
0.0
 20
-0.0265
 30
0.0
 11
0.0
 21
0.0265
 31
0.0
  0
LINE
  5
10D0
100
AcDbEntity
  8
CENTER
100
AcDbLine
 10
0.053
 20
0.0
 30
0.0
 11
0.2045
 21
0.0
 31
0.0
  0
LINE
  5
10D1
100
AcDbEntity
  8
CENTER
100
AcDbLine
 10
0.0
 20
0.053
 30
0.0
 11
0.0
 21
0.2045
 31
0.0
  0
LINE
  5
10D2
100
AcDbEntity
  8
CENTER
100
AcDbLine
 10
-0.053
 20
0.0
 30
0.0
 11
-0.2045
 21
0.0
 31
0.0
  0
LINE
  5
10D3
100
AcDbEntity
  8
CENTER
100
AcDbLine
 10
0.0
 20
-0.053
 30
0.0
 11
0.0
 21
-0.2045
 31
0.0
  0
ENDBLK
  5
10D5
100
AcDbEntity
  8
0
100
AcDbBlockEnd
  0
BLOCK
  5
10E4
100
AcDbEntity
  8
COOLING
100
AcDbBlockBegin
  2
A$C23
 70
     0
 10
0.0
 20
0.0
 30
0.0
  3
A$C23
  1

  0
POLYLINE
  5
10D7
100
AcDbEntity
  8
COOLING
100
AcDb2dPolyline
 66
     1
 10
0.0
 20
0.0
 30
0.0
 70
     1
  0
VERTEX
  5
10D8
100
AcDbEntity
  8
COOLING
100
AcDbVertex
100
AcDb2dVertex
 10
1.33872
 20
0.027049
 30
0.0
  0
VERTEX
  5
10D9
100
AcDbEntity
  8
COOLING
100
AcDbVertex
100
AcDb2dVertex
 10
1.33872
 20
0.402049
 30
0.0
  0
VERTEX
  5
10DA
100
AcDbEntity
  8
COOLING
100
AcDbVertex
100
AcDb2dVertex
 10
-0.78628
 20
0.402049
 30
0.0
  0
VERTEX
  5
10DB
100
AcDbEntity
  8
COOLING
100
AcDbVertex
100
AcDb2dVertex
 10
-0.78628
 20
0.027049
 30
0.0
  0
SEQEND
  5
10DC
100
AcDbEntity
  8
COOLING
  0
POLYLINE
  5
10DD
100
AcDbEntity
  8
COOLING
100
AcDb2dPolyline
 66
     1
 10
0.0
 20
0.0
 30
0.0
  0
VERTEX
  5
10DE
100
AcDbEntity
  8
COOLING
100
AcDbVertex
100
AcDb2dVertex
 10
0.155174
 20
0.402049
 30
0.0
  0
VERTEX
  5
10DF
100
AcDbEntity
  8
COOLING
100
AcDbVertex
100
AcDb2dVertex
 10
0.155174
 20
0.527031
 30
0.0
  0
VERTEX
  5
10E0
100
AcDbEntity
  8
COOLING
100
AcDbVertex
100
AcDb2dVertex
 10
-0.234589
 20
0.527031
 30
0.0
  0
VERTEX
  5
10E1
100
AcDbEntity
  8
COOLING
100
AcDbVertex
100
AcDb2dVertex
 10
-0.234589
 20
0.402049
 30
0.0
  0
SEQEND
  5
10E2
100
AcDbEntity
  8
COOLING
  0
INSERT
  5
10E3
100
AcDbEntity
  8
COOLING
100
AcDbBlockReference
  2
*U48
 10
0.21372
 20
0.214549
 30
0.0
 41
-1.0
1001
TB_S_MPD
1070
   100
1000
TAP
1070
   101
1000
TOOLBOX 13.0 TAP 2.0
1070
   112
1000
(.19) 10-32 UNF TAPPED HOLE
1070
   102
1000
Near side
1070
   103
1000
ANSI-Number
1070
   104
1000
tap_
1070
   105
1000
_usn
1070
   304
1040
0.0
1070
   305
1040
0.0
1070
   313
1040
0.19
1070
   306
1040
0.159
1070
   302
1040
0.0
1070
   303
1040
0.0
1070
   307
1040
0.0
1070
   300
1040
0.125
1070
   311
1040
0.0312
1070
   111
1000
#10-32
1070
   116
1000
T
1070
   308
1040
3.0
1070
   309
1040
0.38
  0
ENDBLK
  5
10E5
100
AcDbEntity
  8
COOLING
100
AcDbBlockEnd
  0
ENDSEC
  0
SECTION
  2
ENTITIES
  0
ACAD_ZOMBIE_ENTITY
  5
3D
100
AcDbEntity
  8
0
100
AcDbZombieEntity
 90
      498
 91
      515
 92
        8
310
0800000000000000
 93
       97
310
D2800000002029040000780280
330
3E
330
3F
330
40
330
41
330
3E
 94
        0
  0
LINE
  5
41B
100
AcDbEntity
  8
HDI
 62
     7
100
AcDbLine
 10
8.709762
 20
4.316911
 30
0.0
 11
8.709762
 21
4.419273
 31
0.0
  0
LINE
  5
41C
100
AcDbEntity
  8
HDI
 62
     7
100
AcDbLine
 10
8.709762
 20
4.230297
 30
0.0
 11
8.709762
 21
4.127935
 31
0.0
  0
LINE
  5
41D
100
AcDbEntity
  8
HDI
 62
     7
100
AcDbLine
 10
8.53929
 20
4.127935
 30
0.0
 11
8.53929
 21
4.230297
 31
0.0
  0
LINE
  5
41E
100
AcDbEntity
  8
HDI
 62
     7
100
AcDbLine
 10
8.709762
 20
4.127935
 30
0.0
 11
8.53929
 21
4.127935
 31
0.0
  0
LINE
  5
420
100
AcDbEntity
  8
HDI
 62
     7
100
AcDbLine
 10
8.506416
 20
4.635808
 30
0.0
 11
8.742636
 21
4.635808
 31
0.0
  0
LINE
  5
421
100
AcDbEntity
  8
HDI
 62
     7
100
AcDbLine
 10
8.506416
 20
4.655493
 30
0.0
 11
8.506416
 21
4.635808
 31
0.0
  0
LINE
  5
422
100
AcDbEntity
  8
HDI
 62
     7
100
AcDbLine
 10
8.53929
 20
4.655493
 30
0.0
 11
8.506416
 21
4.655493
 31
0.0
  0
LINE
  5
423
100
AcDbEntity
  8
HDI
 62
     7
100
AcDbLine
 10
8.53929
 20
4.757855
 30
0.0
 11
8.53929
 21
4.655493
 31
0.0
  0
LINE
  5
424
100
AcDbEntity
  8
HDI
 62
     7
100
AcDbLine
 10
8.709762
 20
4.757855
 30
0.0
 11
8.53929
 21
4.757855
 31
0.0
  0
LINE
  5
425
100
AcDbEntity
  8
HDI
 62
     7
100
AcDbLine
 10
8.709762
 20
4.655493
 30
0.0
 11
8.709762
 21
4.757855
 31
0.0
  0
LINE
  5
426
100
AcDbEntity
  8
HDI
 62
     7
100
AcDbLine
 10
8.742636
 20
4.655493
 30
0.0
 11
8.709762
 21
4.655493
 31
0.0
  0
LINE
  5
427
100
AcDbEntity
  8
HDI
 62
     7
100
AcDbLine
 10
8.742636
 20
4.635808
 30
0.0
 11
8.742636
 21
4.655493
 31
0.0
  0
LINE
  5
428
100
AcDbEntity
  8
HDI
 62
     7
100
AcDbLine
 10
8.506416
 20
4.297226
 30
0.0
 11
8.742636
 21
4.297226
 31
0.0
  0
LINE
  5
429
100
AcDbEntity
  8
HDI
 62
     7
100
AcDbLine
 10
8.506416
 20
4.316911
 30
0.0
 11
8.506416
 21
4.297226
 31
0.0
  0
LINE
  5
42A
100
AcDbEntity
  8
HDI
 62
     7
100
AcDbLine
 10
8.53929
 20
4.316911
 30
0.0
 11
8.506416
 21
4.316911
 31
0.0
  0
LINE
  5
42B
100
AcDbEntity
  8
HDI
 62
     7
100
AcDbLine
 10
8.53929
 20
4.419273
 30
0.0
 11
8.53929
 21
4.316911
 31
0.0
  0
LINE
  5
42C
100
AcDbEntity
  8
HDI
 62
     7
100
AcDbLine
 10
8.709762
 20
4.419273
 30
0.0
 11
8.53929
 21
4.419273
 31
0.0
  0
LINE
  5
42D
100
AcDbEntity
  8
HDI
 62
     7
100
AcDbLine
 10
8.742636
 20
4.316911
 30
0.0
 11
8.709762
 21
4.316911
 31
0.0
  0
LINE
  5
42E
100
AcDbEntity
  8
HDI
 62
     7
100
AcDbLine
 10
8.742636
 20
4.297226
 30
0.0
 11
8.742636
 21
4.316911
 31
0.0
  0
LINE
  5
42F
100
AcDbEntity
  8
HDI
 62
     7
100
AcDbLine
 10
8.506416
 20
4.249982
 30
0.0
 11
8.742636
 21
4.249982
 31
0.0
  0
LINE
  5
430
100
AcDbEntity
  8
HDI
 62
     7
100
AcDbLine
 10
8.506416
 20
4.230297
 30
0.0
 11
8.506416
 21
4.249982
 31
0.0
  0
LINE
  5
431
100
AcDbEntity
  8
HDI
 62
     7
100
AcDbLine
 10
8.53929
 20
4.230297
 30
0.0
 11
8.506416
 21
4.230297
 31
0.0
  0
LINE
  5
432
100
AcDbEntity
  8
HDI
 62
     7
100
AcDbLine
 10
8.742636
 20
4.230297
 30
0.0
 11
8.709762
 21
4.230297
 31
0.0
  0
LINE
  5
433
100
AcDbEntity
  8
HDI
 62
     7
100
AcDbLine
 10
8.742636
 20
4.249982
 30
0.0
 11
8.742636
 21
4.230297
 31
0.0
  0
LINE
  5
434
100
AcDbEntity
  8
HDI
 62
     7
100
AcDbLine
 10
8.506416
 20
4.588564
 30
0.0
 11
8.742636
 21
4.588564
 31
0.0
  0
LINE
  5
435
100
AcDbEntity
  8
HDI
 62
     7
100
AcDbLine
 10
8.506416
 20
4.568879
 30
0.0
 11
8.506416
 21
4.588564
 31
0.0
  0
LINE
  5
436
100
AcDbEntity
  8
HDI
 62
     7
100
AcDbLine
 10
8.53929
 20
4.568879
 30
0.0
 11
8.506416
 21
4.568879
 31
0.0
  0
LINE
  5
437
100
AcDbEntity
  8
HDI
 62
     7
100
AcDbLine
 10
8.53929
 20
4.466517
 30
0.0
 11
8.53929
 21
4.568879
 31
0.0
  0
LINE
  5
438
100
AcDbEntity
  8
HDI
 62
     7
100
AcDbLine
 10
8.709762
 20
4.466517
 30
0.0
 11
8.53929
 21
4.466517
 31
0.0
  0
LINE
  5
439
100
AcDbEntity
  8
HDI
 62
     7
100
AcDbLine
 10
8.709762
 20
4.568879
 30
0.0
 11
8.709762
 21
4.466517
 31
0.0
  0
LINE
  5
43A
100
AcDbEntity
  8
HDI
 62
     7
100
AcDbLine
 10
8.742636
 20
4.568879
 30
0.0
 11
8.709762
 21
4.568879
 31
0.0
  0
LINE
  5
43B
100
AcDbEntity
  8
HDI
 62
     7
100
AcDbLine
 10
8.742636
 20
4.588564
 30
0.0
 11
8.742636
 21
4.568879
 31
0.0
  0
LINE
  5
479
100
AcDbEntity
  8
BEAMS-B
100
AcDbLine
 10
19.608825
 20
4.961224
 30
0.0
 11
18.036206
 21
4.961224
 31
0.0
  0
LINE
  5
47C
100
AcDbEntity
  8
BEAMS-B
100
AcDbLine
 10
18.360799
 20
4.746044
 30
0.0
 11
19.687565
 21
4.746044
 31
0.0
1001
ACAD
1000
ASC_BOUNDS
1002
{
1070
    19
1005
0
1005
0
1005
0
1005
0
1005
0
1005
0
1002
}
  0
LINE
  5
47D
100
AcDbEntity
  8
BEAMS-B
100
AcDbLine
 10
18.353488
 20
4.776044
 30
0.0
 11
19.687565
 21
4.776044
 31
0.0
1001
ACAD
1000
ASC_BOUNDS
1002
{
1070
    19
1005
0
1005
0
1005
0
1005
0
1005
0
1005
0
1002
}
  0
LINE
  5
495
100
AcDbEntity
  8
BEAMS-B
100
AcDbLine
 10
8.880431
 20
4.961225
 30
0.0
 11
10.705312
 21
4.961224
 31
0.0
  0
LINE
  5
496
100
AcDbEntity
  8
BEAMS-B
100
AcDbLine
 10
10.35108
 20
4.746044
 30
0.0
 11
8.801691
 21
4.746046
 31
0.0
1001
ACAD
1000
ASC_BOUNDS
1002
{
1070
    19
1005
0
1002
}
  0
LINE
  5
497
100
AcDbEntity
  8
BEAMS-B
100
AcDbLine
 10
10.35882
 20
4.776044
 30
0.0
 11
8.801691
 21
4.776046
 31
0.0
1001
ACAD
1000
ASC_BOUNDS
1002
{
1070
    19
1005
0
1002
}
  0
LINE
  5
499
100
AcDbEntity
  8
BEAMS-B
100
AcDbLine
 10
8.801691
 20
4.746046
 30
0.0
 11
8.801691
 21
4.882485
 31
0.0
1001
ACAD
1000
ASC_BOUNDS
1002
{
1070
    19
1005
0
1002
}
  0
ARC
  5
49A
100
AcDbEntity
  8
BEAMS-B
100
AcDbCircle
 10
8.880431
 20
4.882485
 30
0.0
 40
0.07874
100
AcDbArc
 50
90.0
 51
180.0
  0
LINE
  5
49B
100
AcDbEntity
  8
BEAMS-B
100
AcDbLine
 10
8.880431
 20
4.849925
 30
0.0
 11
8.880431
 21
5.004436
 31
0.0
  0
LINE
  5
49C
100
AcDbEntity
  8
BEAMS-B
100
AcDbLine
 10
8.755694
 20
4.882485
 30
0.0
 11
8.913859
 21
4.882485
 31
0.0
  0
LINE
  5
4FC
100
AcDbEntity
  8
KEVLAR
100
AcDbLine
 10
11.10781
 20
4.295095
 30
0.0
 11
17.542512
 21
4.295095
 31
0.0
1001
ACAD
1000
ASC_BOUNDS
1002
{
1070
    19
1002
}
  0
LINE
  5
4FD
100
AcDbEntity
  8
KEVLAR
100
AcDbLine
 10
16.068597
 20
4.042268
 30
0.0
 11
13.039076
 21
4.042268
 31
0.0
1001
ACAD
1000
ASC_BOUNDS
1002
{
1070
    19
1002
}
  0
CIRCLE
  5
4FE
100
AcDbEntity
  8
BEAMS
100
AcDbCircle
 10
13.5
 20
2.7342
 30
0.0
 40
0.095766
  0
LINE
  5
500
100
AcDbEntity
  8
KEVLAR
100
AcDbLine
 10
11.10781
 20
4.295095
 30
0.0
 11
11.565161
 21
4.042268
 31
0.0
1001
ACAD
1000
ASC_BOUNDS
1002
{
1070
    19
1005
0
1002
}
  0
LINE
  5
504
100
AcDbEntity
  8
BEAMS-B
100
AcDbLine
 10
11.483907
 20
4.432959
 30
0.0
 11
11.483907
 21
4.511699
 31
0.0
1001
ACAD
1000
ASC_BOUNDS
1002
{
1070
    19
1005
0
1002
}
  0
LINE
  5
505
100
AcDbEntity
  8
BEAMS-B
100
AcDbLine
 10
10.351077
 20
4.746046
 30
0.0
 11
10.893358
 21
4.432959
 31
0.0
1001
ACAD
1000
ASC_BOUNDS
1002
{
1070
    19
1005
0
1002
}
  0
LINE
  5
506
100
AcDbEntity
  8
BEAMS-B
100
AcDbLine
 10
10.35882
 20
4.776044
 30
0.0
 11
10.901098
 21
4.462959
 31
0.0
1001
ACAD
1000
ASC_BOUNDS
1002
{
1070
    19
1005
0
1002
}
  0
LINE
  5
507
100
AcDbEntity
  8
BEAMS-B
100
AcDbLine
 10
10.893358
 20
4.432959
 30
0.0
 11
11.483907
 21
4.432959
 31
0.0
1001
ACAD
1000
ASC_BOUNDS
1002
{
1070
    19
1005
0
1002
}
  0
LINE
  5
508
100
AcDbEntity
  8
BEAMS-B
100
AcDbLine
 10
10.705312
 20
4.961224
 30
0.0
 11
11.483907
 21
4.511699
 31
0.0
  0
LINE
  5
509
100
AcDbEntity
  8
BEAMS-B
100
AcDbLine
 10
10.901098
 20
4.462959
 30
0.0
 11
11.483907
 21
4.462959
 31
0.0
1001
ACAD
1000
ASC_BOUNDS
1002
{
1070
    19
1005
0
1002
}
  0
LINE
  5
50A
100
AcDbEntity
  8
KEVLAR
100
AcDbLine
 10
12.960336
 20
4.121008
 30
0.0
 11
12.802856
 21
4.121008
 31
0.0
1001
ACAD
1000
ASC_BOUNDS
1002
{
1070
    19
1002
}
  0
LINE
  5
50B
100
AcDbEntity
  8
KEVLAR
100
AcDbLine
 10
12.724116
 20
4.042268
 30
0.0
 11
11.565161
 21
4.042268
 31
0.0
1001
ACAD
1000
ASC_BOUNDS
1002
{
1070
    19
1002
}
  0
ARC
  5
50C
100
AcDbEntity
  8
KEVLAR
100
AcDbCircle
 10
12.802856
 20
4.042268
 30
0.0
 40
0.07874
100
AcDbArc
 50
90.0
 51
180.0
1001
ACAD
1000
ASC_BOUNDS
1002
{
1070
    19
1002
}
  0
ARC
  5
50D
100
AcDbEntity
  8
KEVLAR
100
AcDbCircle
 10
12.960336
 20
4.042268
 30
0.0
 40
0.07874
100
AcDbArc
 50
0.0
 51
90.0
1001
ACAD
1000
ASC_BOUNDS
1002
{
1070
    19
1002
}
  0
LINE
  5
50F
100
AcDbEntity
  8
KEVLAR
100
AcDbLine
 10
17.542512
 20
4.042268
 30
0.0
 11
16.383557
 21
4.042268
 31
0.0
1001
ACAD
1000
ASC_BOUNDS
1002
{
1070
    19
1002
}
  0
LINE
  5
510
100
AcDbEntity
  8
KEVLAR
100
AcDbLine
 10
15.353592
 20
4.042268
 30
0.0
 11
15.353592
 21
4.042268
 31
0.0
  0
LINE
  5
519
100
AcDbEntity
  8
BEAMS-B
100
AcDbLine
 10
14.31614
 20
4.301102
 30
0.0
 11
14.31614
 21
4.299134
 31
0.0
  0
LINE
  5
51A
100
AcDbEntity
  8
BEAMS-B
100
AcDbLine
 10
14.319093
 20
4.301102
 30
0.0
 11
14.319093
 21
4.299134
 31
0.0
  0
LINE
  5
51B
100
AcDbEntity
  8
KEVLAR
100
AcDbLine
 10
15.983708
 20
4.042268
 30
0.0
 11
15.983708
 21
4.042268
 31
0.0
  0
LINE
  5
51C
100
AcDbEntity
  8
KEVLAR
100
AcDbLine
 10
16.304817
 20
4.121008
 30
0.0
 11
16.147337
 21
4.121008
 31
0.0
1001
ACAD
1000
ASC_BOUNDS
1002
{
1070
    19
1002
}
  0
ARC
  5
51D
100
AcDbEntity
  8
KEVLAR
100
AcDbCircle
 10
16.147337
 20
4.042268
 30
0.0
 40
0.07874
100
AcDbArc
 50
90.0
 51
180.0
1001
ACAD
1000
ASC_BOUNDS
1002
{
1070
    19
1002
}
  0
ARC
  5
51E
100
AcDbEntity
  8
KEVLAR
100
AcDbCircle
 10
16.304817
 20
4.042268
 30
0.0
 40
0.07874
100
AcDbArc
 50
0.0
 51
90.0
1001
ACAD
1000
ASC_BOUNDS
1002
{
1070
    19
1002
}
  0
LINE
  5
527
100
AcDbEntity
  8
KEVLAR
100
AcDbLine
 10
17.542512
 20
4.295095
 30
0.0
 11
17.542512
 21
4.042268
 31
0.0
1001
ACAD
1000
ASC_BOUNDS
1002
{
1070
    19
1002
}
  0
LINE
  5
528
100
AcDbEntity
  8
BEAMS-B
100
AcDbLine
 10
17.762476
 20
4.432959
 30
0.0
 11
18.360799
 21
4.746044
 31
0.0
1001
ACAD
1000
ASC_BOUNDS
1002
{
1070
    19
1005
0
1002
}
  0
LINE
  5
529
100
AcDbEntity
  8
BEAMS-B
100
AcDbLine
 10
17.755166
 20
4.462959
 30
0.0
 11
18.353488
 21
4.776044
 31
0.0
1001
ACAD
1000
ASC_BOUNDS
1002
{
1070
    19
1005
0
1002
}
  0
LINE
  5
52A
100
AcDbEntity
  8
BEAMS-B
100
AcDbLine
 10
17.17299
 20
4.511699
 30
0.0
 11
18.036206
 21
4.961224
 31
0.0
  0
LINE
  5
52B
100
AcDbEntity
  8
BEAMS-B
100
AcDbLine
 10
17.17299
 20
4.432959
 30
0.0
 11
17.17299
 21
4.511699
 31
0.0
1001
ACAD
1000
ASC_BOUNDS
1002
{
1070
    19
1005
0
1002
}
  0
LINE
  5
52C
100
AcDbEntity
  8
BEAMS-B
100
AcDbLine
 10
17.763539
 20
4.432959
 30
0.0
 11
17.17299
 21
4.432959
 31
0.0
1001
ACAD
1000
ASC_BOUNDS
1002
{
1070
    19
1005
0
1005
0
1002
}
  0
LINE
  5
52D
100
AcDbEntity
  8
BEAMS-B
100
AcDbLine
 10
17.756229
 20
4.462959
 30
0.0
 11
17.17299
 21
4.462959
 31
0.0
1001
ACAD
1000
ASC_BOUNDS
1002
{
1070
    19
1005
0
1005
0
1002
}
  0
LINE
  5
57D
100
AcDbEntity
  8
BEAMS-B
100
AcDbLine
 10
19.687565
 20
4.746044
 30
0.0
 11
19.687565
 21
4.882484
 31
0.0
1001
ACAD
1000
ASC_BOUNDS
1002
{
1070
    19
1005
0
1002
}
  0
ARC
  5
57E
100
AcDbEntity
  8
BEAMS-B
100
AcDbCircle
 10
19.608825
 20
4.882484
 30
0.0
 40
0.07874
100
AcDbArc
 50
0.0
 51
90.0
  0
LINE
  5
5D4
100
AcDbEntity
  8
CENTER
100
AcDbLine
 10
13.5
 20
2.355885
 30
0.0
 11
13.5
 21
14.80863
 31
0.0
  0
TEXT
  5
86B
100
AcDbEntity
  8
TEXT
100
AcDbText
 10
4.268615
 20
15.923603
 30
0.0
 40
0.5
  1
note: hdi's drawn phi-side up
100
AcDbText
  0
LINE
  5
872
100
AcDbEntity
  8
CENTER
100
AcDbLine
 10
6.007833
 20
12.0
 30
0.0
 11
22.856422
 21
12.0
 31
0.0
  0
TEXT
  5
8EE
100
AcDbEntity
  8
TEXT
100
AcDbText
 10
27.472156
 20
0.452654
 30
0.0
 40
0.12
  1
B-FIX
100
AcDbText
  0
TEXT
  5
8EF
100
AcDbEntity
  8
TEXT
100
AcDbText
 10
29.130292
 20
0.473126
 30
0.0
 40
0.12
  1
L2-FIX20
100
AcDbText
  0
TEXT
  5
8F0
100
AcDbEntity
  8
TEXT
100
AcDbText
 10
27.400508
 20
0.176281
 30
0.0
 40
0.12
  1
1=1
100
AcDbText
  0
TEXT
  5
8F1
100
AcDbEntity
  8
TEXT
100
AcDbText
 10
25.496722
 20
0.831389
 30
0.0
 40
0.12
  1
S. KYRE
100
AcDbText
  0
TEXT
  5
8F2
100
AcDbEntity
  8
TEXT
100
AcDbText
 10
26.428144
 20
0.810916
 30
0.0
 40
0.06
  1
10-13-97
100
AcDbText
  0
INSERT
  5
95A
100
AcDbEntity
  8
0
100
AcDbBlockReference
  2
D-BORDER
 10
0.0
 20
0.0
 30
0.0
  0
LINE
  5
AA4
100
AcDbEntity
  8
COOLING
100
AcDbLine
 10
18.125
 20
11.25
 30
0.0
 11
18.125
 21
10.5
 31
0.0
  0
LINE
  5
AA5
100
AcDbEntity
  8
COOLING
100
AcDbLine
 10
18.125
 20
10.5
 30
0.0
 11
20.25
 21
10.5
 31
0.0
  0
LINE
  5
AA6
100
AcDbEntity
  8
COOLING
100
AcDbLine
 10
20.25
 20
10.5
 30
0.0
 11
20.25
 21
11.25
 31
0.0
  0
LINE
  5
AB1
100
AcDbEntity
  8
COOLING
100
AcDbLine
 10
20.25
 20
11.25
 30
0.0
 11
19.875
 21
11.25
 31
0.0
  0
LINE
  5
AB2
100
AcDbEntity
  8
COOLING
100
AcDbLine
 10
18.125
 20
11.25
 30
0.0
 11
18.875
 21
11.25
 31
0.0
  0
ARC
  5
AB3
100
AcDbEntity
  8
COOLING
100
AcDbCircle
 10
18.875
 20
11.375
 30
0.0
 40
0.125
100
AcDbArc
 50
270.0
 51
0.0
  0
LINE
  5
AB4
100
AcDbEntity
  8
COOLING
100
AcDbLine
 10
19.0
 20
11.375
 30
0.0
 11
19.0
 21
13.375
 31
0.0
  0
LINE
  5
AB6
100
AcDbEntity
  8
COOLING
100
AcDbLine
 10
19.75
 20
13.375
 30
0.0
 11
19.75
 21
11.375
 31
0.0
  0
ARC
  5
AB8
100
AcDbEntity
  8
COOLING
100
AcDbCircle
 10
19.875
 20
11.375
 30
0.0
 40
0.125
100
AcDbArc
 50
180.0
 51
270.0
  0
LINE
  5
AB9
100
AcDbEntity
  8
COOLING
100
AcDbLine
 10
18.125
 20
13.5
 30
0.0
 11
18.125
 21
14.25
 31
0.0
  0
LINE
  5
ABA
100
AcDbEntity
  8
COOLING
100
AcDbLine
 10
18.125
 20
14.25
 30
0.0
 11
20.25
 21
14.25
 31
0.0
  0
LINE
  5
ABB
100
AcDbEntity
  8
COOLING
100
AcDbLine
 10
20.25
 20
14.25
 30
0.0
 11
20.25
 21
13.5
 31
0.0
  0
LINE
  5
ABC
100
AcDbEntity
  8
COOLING
100
AcDbLine
 10
18.875
 20
13.5
 30
0.0
 11
18.125
 21
13.5
 31
0.0
  0
ARC
  5
ABD
100
AcDbEntity
  8
COOLING
100
AcDbCircle
 10
18.875
 20
13.375
 30
0.0
 40
0.125
100
AcDbArc
 50
0.0
 51
90.0
  0
LINE
  5
ABE
100
AcDbEntity
  8
COOLING
100
AcDbLine
 10
19.875
 20
13.5
 30
0.0
 11
20.25
 21
13.5
 31
0.0
  0
ARC
  5
ABF
100
AcDbEntity
  8
COOLING
100
AcDbCircle
 10
19.875
 20
13.375
 30
0.0
 40
0.125
100
AcDbArc
 50
90.0
 51
180.0
  0
LINE
  5
AE7
100
AcDbEntity
  8
COOLING
100
AcDbLine
 10
10.375
 20
13.5
 30
0.0
 11
10.375
 21
14.25
 31
0.0
  0
LINE
  5
AE8
100
AcDbEntity
  8
COOLING
100
AcDbLine
 10
8.25
 20
14.25
 30
0.0
 11
8.25
 21
13.5
 31
0.0
  0
LINE
  5
AEB
100
AcDbEntity
  8
COOLING
100
AcDbLine
 10
9.625
 20
13.5
 30
0.0
 11
10.375
 21
13.5
 31
0.0
  0
LINE
  5
AEC
100
AcDbEntity
  8
COOLING
100
AcDbLine
 10
10.375
 20
11.25
 30
0.0
 11
9.625
 21
11.25
 31
0.0
  0
LINE
  5
AEE
100
AcDbEntity
  8
COOLING
100
AcDbLine
 10
10.375
 20
10.5
 30
0.0
 11
8.25
 21
10.5
 31
0.0
  0
LINE
  5
AF0
100
AcDbEntity
  8
COOLING
100
AcDbLine
 10
10.375
 20
11.25
 30
0.0
 11
10.375
 21
10.5
 31
0.0
  0
LINE
  5
AF1
100
AcDbEntity
  8
COOLING
100
AcDbLine
 10
9.5
 20
11.375
 30
0.0
 11
9.5
 21
13.375
 31
0.0
  0
LINE
  5
AF2
100
AcDbEntity
  8
COOLING
100
AcDbLine
 10
8.75
 20
13.375
 30
0.0
 11
8.75
 21
11.375
 31
0.0
  0
LINE
  5
AFA
100
AcDbEntity
  8
COOLING
100
AcDbLine
 10
8.25
 20
11.25
 30
0.0
 11
8.625
 21
11.25
 31
0.0
  0
ARC
  5
AFB
100
AcDbEntity
  8
COOLING
100
AcDbCircle
 10
9.625
 20
11.375
 30
0.0
 40
0.125
100
AcDbArc
 50
180.0
 51
270.0
  0
ARC
  5
AFC
100
AcDbEntity
  8
COOLING
100
AcDbCircle
 10
8.625
 20
11.375
 30
0.0
 40
0.125
100
AcDbArc
 50
270.0
 51
0.0
  0
LINE
  5
AFD
100
AcDbEntity
  8
COOLING
100
AcDbLine
 10
8.25
 20
10.5
 30
0.0
 11
8.25
 21
11.25
 31
0.0
  0
LINE
  5
AFE
100
AcDbEntity
  8
COOLING
100
AcDbLine
 10
8.625
 20
13.5
 30
0.0
 11
8.25
 21
13.5
 31
0.0
  0
ARC
  5
B05
100
AcDbEntity
  8
COOLING
100
AcDbCircle
 10
9.625
 20
13.375
 30
0.0
 40
0.125
100
AcDbArc
 50
90.0
 51
180.0
  0
ARC
  5
B06
100
AcDbEntity
  8
COOLING
100
AcDbCircle
 10
8.625
 20
13.375
 30
0.0
 40
0.125
100
AcDbArc
 50
0.0
 51
90.0
  0
LINE
  5
B07
100
AcDbEntity
  8
COOLING
100
AcDbLine
 10
10.375
 20
14.25
 30
0.0
 11
8.25
 21
14.25
 31
0.0
  0
ARC
  5
C22
100
AcDbEntity
  8
LID
100
AcDbCircle
 10
7.5
 20
3.25
 30
0.0
 40
0.07475
100
AcDbArc
 50
0.0
 51
180.0
  0
LINE
  5
C23
100
AcDbEntity
  8
CENTER
100
AcDbLine
 10
7.475083
 20
3.25
 30
0.0
 11
7.524917
 21
3.25
 31
0.0
  0
LINE
  5
C24
100
AcDbEntity
  8
CENTER
100
AcDbLine
 10
7.5
 20
3.225083
 30
0.0
 11
7.5
 21
3.274917
 31
0.0
  0
LINE
  5
C25
100
AcDbEntity
  8
CENTER
100
AcDbLine
 10
7.549833
 20
3.25
 30
0.0
 11
7.69975
 21
3.25
 31
0.0
  0
LINE
  5
C26
100
AcDbEntity
  8
CENTER
100
AcDbLine
 10
7.5
 20
3.299833
 30
0.0
 11
7.5
 21
3.44975
 31
0.0
  0
LINE
  5
C27
100
AcDbEntity
  8
CENTER
100
AcDbLine
 10
7.450167
 20
3.25
 30
0.0
 11
7.30025
 21
3.25
 31
0.0
  0
LINE
  5
C28
100
AcDbEntity
  8
CENTER
100
AcDbLine
 10
7.5
 20
3.200167
 30
0.0
 11
7.5
 21
3.05025
 31
0.0
  0
LINE
  5
C29
100
AcDbEntity
  8
LID
100
AcDbLine
 10
7.42525
 20
3.25
 30
0.0
 11
7.42525
 21
3.125
 31
0.0
  0
LINE
  5
C2A
100
AcDbEntity
  8
LID
100
AcDbLine
 10
7.57475
 20
3.25
 30
0.0
 11
7.57475
 21
3.125
 31
0.0
  0
ARC
  5
C36
100
AcDbEntity
  8
LID
100
AcDbCircle
 10
14.25
 20
3.25
 30
0.0
 40
0.07475
100
AcDbArc
 50
0.0
 51
180.0
  0
LINE
  5
C37
100
AcDbEntity
  8
LID
100
AcDbLine
 10
14.17525
 20
3.25
 30
0.0
 11
14.17525
 21
3.125
 31
0.0
  0
LINE
  5
C38
100
AcDbEntity
  8
LID
100
AcDbLine
 10
14.32475
 20
3.25
 30
0.0
 11
14.32475
 21
3.125
 31
0.0
  0
ARC
  5
C39
100
AcDbEntity
  8
LID
100
AcDbCircle
 10
21.0
 20
3.25
 30
0.0
 40
0.07475
100
AcDbArc
 50
0.0
 51
180.0
  0
LINE
  5
C3A
100
AcDbEntity
  8
LID
100
AcDbLine
 10
20.92525
 20
3.25
 30
0.0
 11
20.92525
 21
3.125
 31
0.0
  0
LINE
  5
C3B
100
AcDbEntity
  8
LID
100
AcDbLine
 10
21.07475
 20
3.25
 30
0.0
 11
21.07475
 21
3.125
 31
0.0
  0
LINE
  5
C56
100
AcDbEntity
  8
BOARD
100
AcDbLine
 10
23.93752
 20
13.043416
 30
0.0
 11
23.93752
 21
11.389416
 31
0.0
  0
LINE
  5
C57
100
AcDbEntity
  8
BOARD
100
AcDbLine
 10
23.93752
 20
11.389416
 30
0.0
 11
25.00552
 21
11.389416
 31
0.0
  0
LINE
  5
C58
100
AcDbEntity
  8
BOARD
100
AcDbLine
 10
25.00552
 20
11.389416
 30
0.0
 11
25.03752
 21
10.666416
 31
0.0
  0
LINE
  5
C59
100
AcDbEntity
  8
BOARD
100
AcDbLine
 10
25.03752
 20
10.666416
 30
0.0
 11
25.78752
 21
10.666416
 31
0.0
  0
LINE
  5
C5A
100
AcDbEntity
  8
BOARD
100
AcDbLine
 10
25.78752
 20
10.666416
 30
0.0
 11
25.78752
 21
13.766416
 31
0.0
  0
LINE
  5
C5B
100
AcDbEntity
  8
BOARD
100
AcDbLine
 10
25.78752
 20
13.766416
 30
0.0
 11
25.03752
 21
13.766416
 31
0.0
  0
LINE
  5
C5C
100
AcDbEntity
  8
BOARD
100
AcDbLine
 10
25.03752
 20
13.766416
 30
0.0
 11
25.00552
 21
13.043416
 31
0.0
  0
LINE
  5
C5D
100
AcDbEntity
  8
BOARD
100
AcDbLine
 10
25.00552
 20
13.043416
 30
0.0
 11
23.93752
 21
13.043416
 31
0.0
  0
TEXT
  5
C76
100
AcDbEntity
  8
BOARD
100
AcDbText
 10
24.119331
 20
12.116882
 30
0.0
 40
0.125
  1
FORWARD
100
AcDbText
  0
LINE
  5
C81
100
AcDbEntity
  8
BOARD
100
AcDbLine
 10
2.83748
 20
10.666416
 30
0.0
 11
2.83748
 21
13.766416
 31
0.0
  0
LINE
  5
C82
100
AcDbEntity
  8
BOARD
100
AcDbLine
 10
4.57648
 20
13.043416
 30
0.0
 11
4.57648
 21
11.389416
 31
0.0
  0
LINE
  5
C84
100
AcDbEntity
  8
BOARD
100
AcDbLine
 10
4.57648
 20
11.389416
 30
0.0
 11
3.61948
 21
11.389416
 31
0.0
  0
LINE
  5
C85
100
AcDbEntity
  8
BOARD
100
AcDbLine
 10
3.61948
 20
11.389416
 30
0.0
 11
3.58748
 21
10.666416
 31
0.0
  0
LINE
  5
C86
100
AcDbEntity
  8
BOARD
100
AcDbLine
 10
3.58748
 20
10.666416
 30
0.0
 11
2.83748
 21
10.666416
 31
0.0
  0
LINE
  5
C89
100
AcDbEntity
  8
BOARD
100
AcDbLine
 10
3.61948
 20
13.043416
 30
0.0
 11
4.57648
 21
13.043416
 31
0.0
  0
LINE
  5
C8A
100
AcDbEntity
  8
BOARD
100
AcDbLine
 10
2.83748
 20
13.766416
 30
0.0
 11
3.58748
 21
13.766416
 31
0.0
  0
LINE
  5
C8B
100
AcDbEntity
  8
BOARD
100
AcDbLine
 10
3.58748
 20
13.766416
 30
0.0
 11
3.61948
 21
13.043416
 31
0.0
  0
TEXT
  5
C8C
100
AcDbEntity
  8
BOARD
100
AcDbText
 10
3.505669
 20
12.116882
 30
0.0
 40
0.125
  1
BACKWARD
100
AcDbText
  0
LINE
  5
CBC
100
AcDbEntity
  8
LID
100
AcDbLine
 10
21.5
 20
6.125
 30
0.0
 11
21.5
 21
3.125
 31
0.0
  0
LINE
  5
D18
100
AcDbEntity
  8
STRAIN-R
100
AcDbLine
 10
7.125
 20
11.375
 30
0.0
 11
7.125
 21
13.0
 31
0.0
  0
LINE
  5
D65
100
AcDbEntity
  8
LID
100
AcDbLine
 10
21.5
 20
6.125
 30
0.0
 11
7.0
 21
6.125
 31
0.0
  0
LINE
  5
D68
100
AcDbEntity
  8
LID
100
AcDbLine
 10
7.0
 20
6.125
 30
0.0
 11
7.0
 21
3.125
 31
0.0
  0
LINE
  5
D70
100
AcDbEntity
  8
LID
100
AcDbLine
 10
27.125
 20
3.125
 30
0.0
 11
27.125
 21
6.125
 31
0.0
  0
LINE
  5
D72
100
AcDbEntity
  8
LID
100
AcDbLine
 10
27.125
 20
6.125
 30
0.0
 11
31.125
 21
6.125
 31
0.0
  0
LINE
  5
D73
100
AcDbEntity
  8
LID
100
AcDbLine
 10
31.125
 20
3.125
 30
0.0
 11
31.125
 21
6.125
 31
0.0
  0
LINE
  5
DB0
100
AcDbEntity
  8
LID
100
AcDbLine
 10
28.1875
 20
4.5625
 30
0.0
 11
29.9375
 21
4.5625
 31
0.0
  0
LINE
  5
DB1
100
AcDbEntity
  8
LID
100
AcDbLine
 10
27.125
 20
3.8125
 30
0.0
 11
28.1875
 21
3.8125
 31
0.0
  0
LINE
  5
DB2
100
AcDbEntity
  8
LID
100
AcDbLine
 10
28.1875
 20
3.8125
 30
0.0
 11
28.1875
 21
4.5625
 31
0.0
  0
LINE
  5
DB3
100
AcDbEntity
  8
LID
100
AcDbLine
 10
29.9375
 20
4.5625
 30
0.0
 11
29.9375
 21
3.8125
 31
0.0
  0
LINE
  5
DB4
100
AcDbEntity
  8
LID
100
AcDbLine
 10
29.9375
 20
3.8125
 30
0.0
 11
31.125
 21
3.8125
 31
0.0
  0
LINE
  5
DB5
100
AcDbEntity
  8
STRAIN-R
100
AcDbLine
 10
21.375
 20
11.375
 30
0.0
 11
21.375
 21
13.0
 31
0.0
  0
LINE
  5
DBA
100
AcDbEntity
  8
LID
100
AcDbLine
 10
9.125
 20
3.125
 30
0.0
 11
9.125
 21
3.9375
 31
0.0
  0
LINE
  5
DBB
100
AcDbEntity
  8
LID
100
AcDbLine
 10
9.375
 20
3.125
 30
0.0
 11
9.375
 21
3.9375
 31
0.0
  0
ARC
  5
DBC
100
AcDbEntity
  8
LID
100
AcDbCircle
 10
9.25
 20
3.9375
 30
0.0
 40
0.125
100
AcDbArc
 50
0.0
 51
180.0
  0
ARC
  5
DC5
100
AcDbEntity
  8
LID
100
AcDbCircle
 10
19.25
 20
3.9375
 30
0.0
 40
0.125
100
AcDbArc
 50
0.0
 51
180.0
  0
LINE
  5
DC6
100
AcDbEntity
  8
LID
100
AcDbLine
 10
19.375
 20
3.125
 30
0.0
 11
19.375
 21
3.9375
 31
0.0
  0
LINE
  5
DC7
100
AcDbEntity
  8
LID
100
AcDbLine
 10
19.125
 20
3.125
 30
0.0
 11
19.125
 21
3.9375
 31
0.0
  0
LEADER
  5
E75
100
AcDbEntity
  8
TEXT
100
AcDbLeader
  3
SU1$7
 73
     0
 75
     1
 40
0.18
 41
1.68
 76
     3
 10
6.054841
 20
4.310488
 30
0.0
 10
5.151828
 20
5.771591
 30
0.0
 10
4.971828
 20
5.771591
 30
0.0
 77
   256
1001
ACAD
1000
DSTYLE
1002
{
1070
   176
1070
   256
1002
}
  0
TEXT
  5
E77
100
AcDbEntity
  8
TEXT
100
AcDbText
 10
4.61503
 20
5.681725
 30
0.0
 40
0.25
  1
A
100
AcDbText
  0
LINE
  5
EBB
100
AcDbEntity
  8
SPRING
100
AcDbLine
 10
6.3125
 20
4.0135
 30
0.0
 11
6.6875
 21
3.799
 31
0.0
  0
LINE
  5
EBC
100
AcDbEntity
  8
SPRING
100
AcDbLine
 10
6.3125
 20
3.799
 30
0.0
 11
6.6875
 21
4.0135
 31
0.0
  0
CIRCLE
  5
EBD
100
AcDbEntity
  8
TEXT
  6
BORDER2
100
AcDbCircle
 10
6.381697
 20
3.659713
 30
0.0
 40
0.707671
  0
LINE
  5
ECB
100
AcDbEntity
  8
SPRING
100
AcDbLine
 10
25.276786
 20
17.408658
 30
0.0
 11
26.026786
 21
17.837658
 31
0.0
  0
LINE
  5
ECC
100
AcDbEntity
  8
SPRING
100
AcDbLine
 10
25.276786
 20
17.837658
 30
0.0
 11
26.026786
 21
17.408658
 31
0.0
  0
LINE
  5
ED8
100
AcDbEntity
  8
BASE
100
AcDbLine
 10
24.775437
 20
15.870658
 30
0.0
 11
26.238902
 21
15.870658
 31
0.0
  0
LINE
  5
ED9
100
AcDbEntity
  8
BASE
100
AcDbLine
 10
24.677656
 20
16.810658
 30
0.0
 11
24.72623
 21
16.659602
 31
0.0
  0
LINE
  5
EDA
100
AcDbEntity
  8
BASE
100
AcDbLine
 10
24.72623
 20
16.659602
 30
0.0
 11
24.62802
 21
16.533386
 31
0.0
  0
LINE
  5
EDB
100
AcDbEntity
  8
BASE
100
AcDbLine
 10
24.62802
 20
16.533386
 30
0.0
 11
24.747275
 21
16.40717
 31
0.0
  0
LINE
  5
EDC
100
AcDbEntity
  8
BASE
100
AcDbLine
 10
24.747275
 20
16.40717
 30
0.0
 11
24.677125
 21
16.210834
 31
0.0
  0
LINE
  5
EDD
100
AcDbEntity
  8
BASE
100
AcDbLine
 10
24.677125
 20
16.210834
 30
0.0
 11
24.78235
 21
16.091631
 31
0.0
  0
LINE
  5
EDE
100
AcDbEntity
  8
BASE
100
AcDbLine
 10
24.78235
 20
16.091631
 30
0.0
 11
24.719215
 21
15.923343
 31
0.0
  0
LINE
  5
EDF
100
AcDbEntity
  8
BASE
100
AcDbLine
 10
24.719215
 20
15.923343
 30
0.0
 11
24.775437
 21
15.870658
 31
0.0
  0
LINE
  5
EE0
100
AcDbEntity
  8
BASE
100
AcDbLine
 10
26.422041
 20
16.810658
 30
0.0
 11
26.339686
 21
16.694662
 31
0.0
  0
LINE
  5
EE1
100
AcDbEntity
  8
BASE
100
AcDbLine
 10
26.339686
 20
16.694662
 30
0.0
 11
26.402821
 21
16.484302
 31
0.0
  0
LINE
  5
EE2
100
AcDbEntity
  8
BASE
100
AcDbLine
 10
26.402821
 20
16.484302
 30
0.0
 11
26.255506
 21
16.287966
 31
0.0
  0
LINE
  5
EE3
100
AcDbEntity
  8
BASE
100
AcDbLine
 10
26.255506
 20
16.287966
 30
0.0
 11
26.346701
 21
16.021511
 31
0.0
  0
LINE
  5
EE4
100
AcDbEntity
  8
BASE
100
AcDbLine
 10
26.346701
 20
16.021511
 30
0.0
 11
26.238902
 21
15.870658
 31
0.0
  0
LINE
  5
EEE
100
AcDbEntity
  8
C-FIBER
100
AcDbLine
 10
26.428992
 20
17.310658
 30
0.0
 11
26.466839
 21
17.261314
 31
0.0
  0
LINE
  5
EEF
100
AcDbEntity
  8
C-FIBER
100
AcDbLine
 10
26.466839
 20
17.261314
 30
0.0
 11
26.432663
 21
17.133212
 31
0.0
  0
LINE
  5
EF0
100
AcDbEntity
  8
C-FIBER
100
AcDbLine
 10
26.432663
 20
17.133212
 30
0.0
 11
26.503862
 21
17.042118
 31
0.0
  0
LINE
  5
EF1
100
AcDbEntity
  8
C-FIBER
100
AcDbLine
 10
26.503862
 20
17.042118
 30
0.0
 11
26.458295
 21
16.931096
 31
0.0
  0
LINE
  5
EF2
100
AcDbEntity
  8
C-FIBER
100
AcDbLine
 10
26.458295
 20
16.931096
 30
0.0
 11
26.492155
 21
16.870658
 31
0.0
  0
TEXT
  5
F06
100
AcDbEntity
  8
TEXT
100
AcDbText
 10
25.330324
 20
15.221066
 30
0.0
 40
0.18
  1
VIEW
100
AcDbText
  0
TEXT
  5
F07
100
AcDbEntity
  8
TEXT
100
AcDbText
 10
25.330324
 20
14.921066
 30
0.0
 40
0.18
  1
SCALE 2=1
100
AcDbText
  0
TEXT
  5
F08
100
AcDbEntity
  8
TEXT
100
AcDbText
 10
26.330324
 20
15.221066
 30
0.0
 40
0.25
  1
A
100
AcDbText
  0
LEADER
  5
F09
100
AcDbEntity
  8
TEXT
100
AcDbLeader
  3
SU1$7
 73
     0
 74
     0
 75
     1
 40
0.18
 41
3.96
 76
     3
 10
26.291521
 20
17.099502
 30
0.0
 10
26.636348
 20
17.684633
 30
0.0
 10
26.816348
 20
17.684633
 30
0.0
 77
   256
1001
ACAD
1000
DSTYLE
1002
{
1070
   176
1070
   256
1002
}
  0
LEADER
  5
F0B
100
AcDbEntity
  8
TEXT
100
AcDbLeader
  3
SU1$7
 73
     0
 75
     1
 40
0.18
 41
2.22
 76
     3
 10
25.29233
 20
16.827113
 30
0.0
 10
24.745647
 20
17.533306
 30
0.0
 10
24.565647
 20
17.533306
 30
0.0
 77
   256
1001
ACAD
1000
DSTYLE
1002
{
1070
   176
1070
   256
1002
}
  0
LEADER
  5
F0D
100
AcDbEntity
  8
TEXT
100
AcDbLeader
  3
SU1$7
 73
     0
 75
     1
 40
0.18
 41
2.28
 76
     3
 10
24.878524
 20
16.352956
 30
0.0
 10
24.412583
 20
16.927998
 30
0.0
 10
24.232583
 20
16.927998
 30
0.0
 77
   256
1001
ACAD
1000
DSTYLE
1002
{
1070
   176
1070
   256
1002
}
  0
LEADER
  5
F0F
100
AcDbEntity
  8
TEXT
100
AcDbLeader
  3
SU1$7
 73
     0
 75
     1
 40
0.18
 41
0.96
 76
     3
 10
25.393259
 20
17.492952
 30
0.0
 10
24.786018
 20
18.22941
 30
0.0
 10
24.606018
 20
18.22941
 30
0.0
 77
   256
1001
ACAD
1000
DSTYLE
1002
{
1070
   176
1070
   256
1002
}
  0
LEADER
  5
F27
100
AcDbEntity
  8
TEXT
100
AcDbLeader
  3
SU1$7
 73
     0
 75
     1
 40
0.18
 41
1.68
 76
     3
 10
27.686985
 20
4.576823
 30
0.0
 10
27.179109
 20
5.354315
 30
0.0
 10
26.999109
 20
5.354315
 30
0.0
 77
   256
1001
ACAD
1000
DSTYLE
1002
{
1070
   176
1070
   256
1002
}
  0
LEADER
  5
F2A
100
AcDbEntity
  8
TEXT
100
AcDbLeader
  3
SU1$7
 73
     0
 74
     0
 75
     1
 40
0.18
 41
0.42
 76
     3
 10
20.82018
 20
6.139984
 30
0.0
 10
21.124869
 20
6.840647
 30
0.0
 10
21.304869
 20
6.840647
 30
0.0
 77
   256
1001
ACAD
1000
DSTYLE
1002
{
1070
   176
1070
   256
1002
}
  0
LEADER
  5
F2C
100
AcDbEntity
  8
TEXT
100
AcDbLeader
  3
SU1$7
 73
     0
 74
     0
 75
     1
 40
0.18
 41
2.22
 76
     3
 10
19.721757
 20
14.146358
 30
0.0
 10
20.413819
 20
15.437218
 30
0.0
 10
20.593819
 20
15.437218
 30
0.0
 77
   256
1001
ACAD
1000
DSTYLE
1002
{
1070
   176
1070
   256
1002
}
  0
LEADER
  5
F2F
100
AcDbEntity
  8
TEXT
100
AcDbLeader
  3
SU1$7
 73
     0
 74
     0
 75
     1
 40
0.18
 41
2.16
 76
     3
 10
21.294525
 20
12.91044
 30
0.0
 10
22.094012
 20
14.857319
 30
0.0
 10
22.274012
 20
14.857319
 30
0.0
 77
   256
1001
ACAD
1000
DSTYLE
1002
{
1070
   176
1070
   256
1002
}
  0
LEADER
  5
F31
100
AcDbEntity
  8
TEXT
100
AcDbLeader
  3
SU1$7
 73
     0
 74
     0
 75
     1
 40
0.18
 41
3.66
 76
     3
 10
25.62939
 20
12.135699
 30
0.0
 10
26.817143
 20
14.68094
 30
0.0
 10
26.997143
 20
14.68094
 30
0.0
 77
   256
1001
ACAD
1000
DSTYLE
1002
{
1070
   176
1070
   256
1002
}
  0
SPLINE
  5
F79
100
AcDbEntity
  8
CABLE
100
AcDbSpline
210
0.0
220
0.0
230
-1.0
 70
     8
 71
     3
 72
    11
 73
     7
 74
     0
 42
0.0000001
 43
0.0000001
 40
0.0
 40
0.0
 40
0.0
 40
0.0
 40
0.2209294718038781
 40
0.7203865527361812
 40
1.220386552736181
 40
2.139570722288265
 40
2.139570722288265
 40
2.139570722288265
 40
2.139570722288265
 10
2.448999999999998
 20
4.223890766525285
 30
0.0
 10
2.205188225018048
 20
4.244084721211535
 30
0.0
 10
1.985915267988971
 20
4.38356166393018
 30
0.0
 10
1.744599520035351
 20
4.370173508426319
 30
0.0
 10
1.115994155226419
 20
4.376751423793651
 30
0.0
 10
0.6241851210687171
 20
4.379085021128791
 30
0.0
 10
0.3363846501175871
 20
4.27397262740034
 30
0.0
  0
SPLINE
  5
F7A
100
AcDbEntity
  8
CABLE
100
AcDbSpline
210
0.0
220
0.0
230
-1.0
 70
     8
 71
     3
 72
    11
 73
     7
 74
     0
 42
0.0000001
 43
0.0000001
 40
0.0
 40
0.0
 40
0.0
 40
0.0
 40
0.2209294718038781
 40
0.7203865527361812
 40
1.220386552736181
 40
2.139570722288265
 40
2.139570722288265
 40
2.139570722288265
 40
2.139570722288265
 10
2.448999999999998
 20
4.286390766525285
 30
0.0
 10
2.205188225018048
 20
4.306584721211535
 30
0.0
 10
1.985915267988971
 20
4.44606166393018
 30
0.0
 10
1.744599520035351
 20
4.432673508426319
 30
0.0
 10
1.115994155226419
 20
4.439251423793651
 30
0.0
 10
0.6241851210687171
 20
4.441585021128791
 30
0.0
 10
0.3363846501175871
 20
4.33647262740034
 30
0.0
  0
SPLINE
  5
F7B
100
AcDbEntity
  8
CABLE
100
AcDbSpline
210
0.0
220
0.0
230
1.0
 70
     8
 71
     3
 72
    12
 73
     8
 74
     6
 42
0.0000001
 43
0.0000001
 44
0.0
 12
1.0
 22
0.0
 32
0.0
 13
-0.9179195476388281
 23
-0.3967665611698257
 33
0.0
 40
0.0
 40
0.0
 40
0.0
 40
0.0
 40
0.1996470432488573
 40
0.5227774455642256
 40
0.7429482298699006
 40
1.2429482298699
 40
2.212280022262254
 40
2.212280022262254
 40
2.212280022262254
 40
2.212280022262254
 10
2.448999999999998
 20
4.723890766525285
 30
0.0
 10
2.515549014416284
 20
4.723890766525285
 30
0.0
 10
2.098975542208669
 20
4.724389221320043
 30
0.0
 10
2.020158642463332
 20
4.560185420024678
 30
0.0
 10
1.647608930309718
 20
4.467810552142482
 30
0.0
 10
1.10624531732817
 20
4.504289905591923
 30
0.0
 10
0.5781559081791027
 20
4.586480933620999
 30
0.0
 10
0.2815663747175279
 20
4.458281452987634
 30
0.0
 11
2.448999999999998
 21
4.723890766525285
 31
0.0
 11
2.250039547825871
 21
4.707347479407012
 31
0.0
 11
1.960997922651181
 21
4.562889195404792
 31
0.0
 11
1.75
 21
4.5
 31
0.0
 11
1.25
 21
4.5
 31
0.0
 11
0.2815663747175279
 21
4.458281452987634
 31
0.0
  0
SPLINE
  5
F7C
100
AcDbEntity
  8
CABLE
100
AcDbSpline
210
0.0
220
0.0
230
1.0
 70
     8
 71
     3
 72
    12
 73
     8
 74
     6
 42
0.0000001
 43
0.0000001
 44
0.0
 12
1.0
 22
0.0
 32
0.0
 13
-0.9179195476388281
 23
-0.3967665611698257
 33
0.0
 40
0.0
 40
0.0
 40
0.0
 40
0.0
 40
0.1996470432488573
 40
0.5227774455642256
 40
0.7429482298699006
 40
1.2429482298699
 40
2.212280022262254
 40
2.212280022262254
 40
2.212280022262254
 40
2.212280022262254
 10
2.448999999999998
 20
4.661390766525285
 30
0.0
 10
2.515549014416284
 20
4.661390766525285
 30
0.0
 10
2.098975542208669
 20
4.661889221320042
 30
0.0
 10
2.020158642463332
 20
4.497685420024677
 30
0.0
 10
1.647608930309718
 20
4.405310552142483
 30
0.0
 10
1.10624531732817
 20
4.441789905591922
 30
0.0
 10
0.5781559081791027
 20
4.523980933620999
 30
0.0
 10
0.2815663747175279
 20
4.395781452987634
 30
0.0
 11
2.448999999999998
 21
4.661390766525285
 31
0.0
 11
2.250039547825871
 21
4.644847479407012
 31
0.0
 11
1.960997922651181
 21
4.500389195404792
 31
0.0
 11
1.75
 21
4.4375
 31
0.0
 11
1.25
 21
4.4375
 31
0.0
 11
0.2815663747175279
 21
4.395781452987634
 31
0.0
  0
LINE
  5
10FA
100
AcDbEntity
  8
LID
100
AcDbLine
 10
27.125
 20
3.125
 30
0.0
 11
27.094
 21
3.125
 31
0.0
  0
LINE
  5
10FB
100
AcDbEntity
  8
LID
100
AcDbLine
 10
27.094
 20
3.125
 30
0.0
 11
27.094
 21
6.156
 31
0.0
  0
LINE
  5
10FC
100
AcDbEntity
  8
LID
100
AcDbLine
 10
27.094
 20
6.156
 30
0.0
 11
31.156
 21
6.156
 31
0.0
  0
LINE
  5
10FD
100
AcDbEntity
  8
LID
100
AcDbLine
 10
31.156
 20
6.156
 30
0.0
 11
31.156
 21
3.125
 31
0.0
  0
LINE
  5
10FE
100
AcDbEntity
  8
LID
100
AcDbLine
 10
31.156
 20
3.125
 30
0.0
 11
31.125
 21
3.125
 31
0.0
  0
POLYLINE
  5
10FF
100
AcDbEntity
  8
COOLING
100
AcDb2dPolyline
 66
     1
 10
0.0
 20
0.0
 30
0.0
 70
     1
  0
VERTEX
  5
1100
100
AcDbEntity
  8
COOLING
100
AcDbVertex
100
AcDb2dVertex
 10
10.375
 20
3.75
 30
0.0
  0
VERTEX
  5
1101
100
AcDbEntity
  8
COOLING
100
AcDbVertex
100
AcDb2dVertex
 10
10.375
 20
4.125
 30
0.0
  0
VERTEX
  5
1102
100
AcDbEntity
  8
COOLING
100
AcDbVertex
100
AcDb2dVertex
 10
8.25
 20
4.125
 30
0.0
  0
VERTEX
  5
1103
100
AcDbEntity
  8
COOLING
100
AcDbVertex
100
AcDb2dVertex
 10
8.25
 20
3.75
 30
0.0
  0
SEQEND
  5
1104
100
AcDbEntity
  8
COOLING
  0
POLYLINE
  5
1105
100
AcDbEntity
  8
COOLING
100
AcDb2dPolyline
 66
     1
 10
0.0
 20
0.0
 30
0.0
  0
VERTEX
  5
1106
100
AcDbEntity
  8
COOLING
100
AcDbVertex
100
AcDb2dVertex
 10
9.191454
 20
4.125
 30
0.0
  0
VERTEX
  5
1107
100
AcDbEntity
  8
COOLING
100
AcDbVertex
100
AcDb2dVertex
 10
9.191454
 20
4.249982
 30
0.0
  0
VERTEX
  5
1108
100
AcDbEntity
  8
COOLING
100
AcDbVertex
100
AcDb2dVertex
 10
8.801691
 20
4.249982
 30
0.0
  0
VERTEX
  5
1109
100
AcDbEntity
  8
COOLING
100
AcDbVertex
100
AcDb2dVertex
 10
8.801691
 20
4.125
 30
0.0
  0
SEQEND
  5
110A
100
AcDbEntity
  8
COOLING
  0
INSERT
  5
110B
100
AcDbEntity
  8
COOLING
100
AcDbBlockReference
  2
*U48
 10
9.25
 20
3.9375
 30
0.0
 41
-1.0
1001
TB_S_MPD
1070
   100
1000
TAP
1070
   101
1000
TOOLBOX 13.0 TAP 2.0
1070
   112
1000
(.19) 10-32 UNF TAPPED HOLE
1070
   102
1000
Near side
1070
   103
1000
ANSI-Number
1070
   104
1000
tap_
1070
   105
1000
_usn
1070
   304
1040
0.0
1070
   305
1040
0.0
1070
   313
1040
0.19
1070
   306
1040
0.159
1070
   302
1040
0.0
1070
   303
1040
0.0
1070
   307
1040
0.0
1070
   300
1040
0.125
1070
   311
1040
0.0312
1070
   111
1000
#10-32
1070
   116
1000
T
1070
   308
1040
3.0
1070
   309
1040
0.38
  0
POLYLINE
  5
110C
100
AcDbEntity
  8
COOLING
100
AcDb2dPolyline
 66
     1
 10
0.0
 20
0.0
 30
0.0
 70
     1
  0
VERTEX
  5
110D
100
AcDbEntity
  8
COOLING
100
AcDbVertex
100
AcDb2dVertex
 10
18.125
 20
3.75
 30
0.0
  0
VERTEX
  5
110E
100
AcDbEntity
  8
COOLING
100
AcDbVertex
100
AcDb2dVertex
 10
18.125
 20
4.125
 30
0.0
  0
VERTEX
  5
110F
100
AcDbEntity
  8
COOLING
100
AcDbVertex
100
AcDb2dVertex
 10
20.25
 20
4.125
 30
0.0
  0
VERTEX
  5
1110
100
AcDbEntity
  8
COOLING
100
AcDbVertex
100
AcDb2dVertex
 10
20.25
 20
3.75
 30
0.0
  0
SEQEND
  5
1111
100
AcDbEntity
  8
COOLING
  0
POLYLINE
  5
1112
100
AcDbEntity
  8
COOLING
100
AcDb2dPolyline
 66
     1
 10
0.0
 20
0.0
 30
0.0
  0
VERTEX
  5
1113
100
AcDbEntity
  8
COOLING
100
AcDbVertex
100
AcDb2dVertex
 10
19.297802
 20
4.125
 30
0.0
  0
VERTEX
  5
1114
100
AcDbEntity
  8
COOLING
100
AcDbVertex
100
AcDb2dVertex
 10
19.297802
 20
4.249982
 30
0.0
  0
VERTEX
  5
1115
100
AcDbEntity
  8
COOLING
100
AcDbVertex
100
AcDb2dVertex
 10
19.687565
 20
4.249982
 30
0.0
  0
VERTEX
  5
1116
100
AcDbEntity
  8
COOLING
100
AcDbVertex
100
AcDb2dVertex
 10
19.687565
 20
4.125
 30
0.0
  0
SEQEND
  5
1117
100
AcDbEntity
  8
COOLING
  0
INSERT
  5
1118
100
AcDbEntity
  8
COOLING
100
AcDbBlockReference
  2
*U46
 10
19.25
 20
3.9375
 30
0.0
1001
TB_S_MPD
1070
   100
1000
TAP
1070
   101
1000
TOOLBOX 13.0 TAP 2.0
1070
   112
1000
(.19) 10-32 UNF TAPPED HOLE
1070
   102
1000
Near side
1070
   103
1000
ANSI-Number
1070
   104
1000
tap_
1070
   105
1000
_usn
1070
   304
1040
0.0
1070
   305
1040
0.0
1070
   313
1040
0.19
1070
   306
1040
0.159
1070
   302
1040
0.0
1070
   303
1040
0.0
1070
   307
1040
0.0
1070
   300
1040
0.125
1070
   311
1040
0.0312
1070
   111
1000
#10-32
1070
   116
1000
T
1070
   308
1040
3.0
1070
   309
1040
0.38
  0
CIRCLE
  5
1119
100
AcDbEntity
  8
COOLING
100
AcDbCircle
 10
8.967045
 20
11.848307
 30
0.0
 40
0.019685
  0
LINE
  5
111A
100
AcDbEntity
  8
CENTER
100
AcDbLine
 10
8.960483
 20
11.848307
 30
0.0
 11
8.973606
 21
11.848307
 31
0.0
  0
LINE
  5
111B
100
AcDbEntity
  8
CENTER
100
AcDbLine
 10
8.967045
 20
11.841745
 30
0.0
 11
8.967045
 21
11.854869
 31
0.0
  0
LINE
  5
111C
100
AcDbEntity
  8
CENTER
100
AcDbLine
 10
8.980168
 20
11.848307
 30
0.0
 11
9.11173
 21
11.848307
 31
0.0
  0
LINE
  5
111D
100
AcDbEntity
  8
CENTER
100
AcDbLine
 10
8.967045
 20
11.86143
 30
0.0
 11
8.967045
 21
11.992992
 31
0.0
  0
LINE
  5
111E
100
AcDbEntity
  8
CENTER
100
AcDbLine
 10
8.953921
 20
11.848307
 30
0.0
 11
8.82236
 21
11.848307
 31
0.0
  0
LINE
  5
111F
100
AcDbEntity
  8
CENTER
100
AcDbLine
 10
8.967045
 20
11.835184
 30
0.0
 11
8.967045
 21
11.703622
 31
0.0
  0
CIRCLE
  5
1120
100
AcDbEntity
  8
COOLING
100
AcDbCircle
 10
8.967045
 20
12.584526
 30
0.0
 40
0.019685
  0
LINE
  5
1121
100
AcDbEntity
  8
CENTER
100
AcDbLine
 10
8.960483
 20
12.584526
 30
0.0
 11
8.973606
 21
12.584526
 31
0.0
  0
LINE
  5
1122
100
AcDbEntity
  8
CENTER
100
AcDbLine
 10
8.967045
 20
12.577964
 30
0.0
 11
8.967045
 21
12.591088
 31
0.0
  0
LINE
  5
1123
100
AcDbEntity
  8
CENTER
100
AcDbLine
 10
8.980168
 20
12.584526
 30
0.0
 11
9.11173
 21
12.584526
 31
0.0
  0
LINE
  5
1124
100
AcDbEntity
  8
CENTER
100
AcDbLine
 10
8.967045
 20
12.597649
 30
0.0
 11
8.967045
 21
12.729211
 31
0.0
  0
LINE
  5
1125
100
AcDbEntity
  8
CENTER
100
AcDbLine
 10
8.953921
 20
12.584526
 30
0.0
 11
8.82236
 21
12.584526
 31
0.0
  0
LINE
  5
1126
100
AcDbEntity
  8
CENTER
100
AcDbLine
 10
8.967045
 20
12.571403
 30
0.0
 11
8.967045
 21
12.439841
 31
0.0
  0
CIRCLE
  5
1127
100
AcDbEntity
  8
COOLING
100
AcDbCircle
 10
19.522211
 20
11.848307
 30
0.0
 40
0.019685
  0
LINE
  5
1128
100
AcDbEntity
  8
CENTER
100
AcDbLine
 10
19.515649
 20
11.848307
 30
0.0
 11
19.528773
 21
11.848307
 31
0.0
  0
LINE
  5
1129
100
AcDbEntity
  8
CENTER
100
AcDbLine
 10
19.522211
 20
11.841745
 30
0.0
 11
19.522211
 21
11.854869
 31
0.0
  0
LINE
  5
112A
100
AcDbEntity
  8
CENTER
100
AcDbLine
 10
19.535334
 20
11.848307
 30
0.0
 11
19.666896
 21
11.848307
 31
0.0
  0
LINE
  5
112B
100
AcDbEntity
  8
CENTER
100
AcDbLine
 10
19.522211
 20
11.86143
 30
0.0
 11
19.522211
 21
11.992992
 31
0.0
  0
LINE
  5
112C
100
AcDbEntity
  8
CENTER
100
AcDbLine
 10
19.509088
 20
11.848307
 30
0.0
 11
19.377526
 21
11.848307
 31
0.0
  0
LINE
  5
112D
100
AcDbEntity
  8
CENTER
100
AcDbLine
 10
19.522211
 20
11.835184
 30
0.0
 11
19.522211
 21
11.703622
 31
0.0
  0
CIRCLE
  5
112E
100
AcDbEntity
  8
COOLING
100
AcDbCircle
 10
19.522211
 20
12.584526
 30
0.0
 40
0.019685
  0
LINE
  5
112F
100
AcDbEntity
  8
CENTER
100
AcDbLine
 10
19.515649
 20
12.584526
 30
0.0
 11
19.528773
 21
12.584526
 31
0.0
  0
LINE
  5
1130
100
AcDbEntity
  8
CENTER
100
AcDbLine
 10
19.522211
 20
12.577964
 30
0.0
 11
19.522211
 21
12.591088
 31
0.0
  0
LINE
  5
1131
100
AcDbEntity
  8
CENTER
100
AcDbLine
 10
19.535334
 20
12.584526
 30
0.0
 11
19.666896
 21
12.584526
 31
0.0
  0
LINE
  5
1132
100
AcDbEntity
  8
CENTER
100
AcDbLine
 10
19.522211
 20
12.597649
 30
0.0
 11
19.522211
 21
12.729211
 31
0.0
  0
LINE
  5
1133
100
AcDbEntity
  8
CENTER
100
AcDbLine
 10
19.509088
 20
12.584526
 30
0.0
 11
19.377526
 21
12.584526
 31
0.0
  0
LINE
  5
1134
100
AcDbEntity
  8
CENTER
100
AcDbLine
 10
19.522211
 20
12.571403
 30
0.0
 11
19.522211
 21
12.439841
 31
0.0
  0
LINE
  5
1135
100
AcDbEntity
  8
CENTER
100
AcDbLine
 10
8.967045
 20
11.797975
 30
0.0
 11
8.967045
 21
11.712899
 31
0.0
  0
CIRCLE
  5
1136
100
AcDbEntity
  8
COOLING
100
AcDbCircle
 10
8.967045
 20
11.755787
 30
0.0
 40
0.0236
  0
LINE
  5
1137
100
AcDbEntity
  8
CENTER
100
AcDbLine
 10
9.011929
 20
11.755787
 30
0.0
 11
8.922311
 21
11.755787
 31
0.0
  0
CIRCLE
  5
1138
100
AcDbEntity
  8
HIDDEN
100
AcDbCircle
 10
8.967045
 20
11.755787
 30
0.0
 40
0.018274
  0
LINE
  5
1139
100
AcDbEntity
  8
CENTER
100
AcDbLine
 10
8.967045
 20
11.983014
 30
0.0
 11
8.967045
 21
11.897938
 31
0.0
  0
CIRCLE
  5
113A
100
AcDbEntity
  8
COOLING
100
AcDbCircle
 10
8.967045
 20
11.940826
 30
0.0
 40
0.0236
  0
LINE
  5
113B
100
AcDbEntity
  8
CENTER
100
AcDbLine
 10
9.011929
 20
11.940826
 30
0.0
 11
8.922311
 21
11.940826
 31
0.0
  0
CIRCLE
  5
113C
100
AcDbEntity
  8
HIDDEN
100
AcDbCircle
 10
8.967045
 20
11.940826
 30
0.0
 40
0.018274
  0
LINE
  5
113D
100
AcDbEntity
  8
CENTER
100
AcDbLine
 10
8.967045
 20
12.534194
 30
0.0
 11
8.967045
 21
12.449118
 31
0.0
  0
CIRCLE
  5
113E
100
AcDbEntity
  8
COOLING
100
AcDbCircle
 10
8.967045
 20
12.492006
 30
0.0
 40
0.0236
  0
LINE
  5
113F
100
AcDbEntity
  8
CENTER
100
AcDbLine
 10
9.011929
 20
12.492006
 30
0.0
 11
8.922311
 21
12.492006
 31
0.0
  0
CIRCLE
  5
1140
100
AcDbEntity
  8
HIDDEN
100
AcDbCircle
 10
8.967045
 20
12.492006
 30
0.0
 40
0.018274
  0
LINE
  5
1141
100
AcDbEntity
  8
CENTER
100
AcDbLine
 10
8.967045
 20
12.719233
 30
0.0
 11
8.967045
 21
12.634157
 31
0.0
  0
CIRCLE
  5
1142
100
AcDbEntity
  8
COOLING
100
AcDbCircle
 10
8.967045
 20
12.677045
 30
0.0
 40
0.0236
  0
LINE
  5
1143
100
AcDbEntity
  8
CENTER
100
AcDbLine
 10
9.011929
 20
12.677045
 30
0.0
 11
8.922311
 21
12.677045
 31
0.0
  0
CIRCLE
  5
1144
100
AcDbEntity
  8
HIDDEN
100
AcDbCircle
 10
8.967045
 20
12.677045
 30
0.0
 40
0.018274
  0
LINE
  5
1145
100
AcDbEntity
  8
CENTER
100
AcDbLine
 10
19.522211
 20
11.797975
 30
0.0
 11
19.522211
 21
11.712899
 31
0.0
  0
CIRCLE
  5
1146
100
AcDbEntity
  8
COOLING
100
AcDbCircle
 10
19.522211
 20
11.755787
 30
0.0
 40
0.0236
  0
LINE
  5
1147
100
AcDbEntity
  8
CENTER
100
AcDbLine
 10
19.567095
 20
11.755787
 30
0.0
 11
19.477477
 21
11.755787
 31
0.0
  0
CIRCLE
  5
1148
100
AcDbEntity
  8
HIDDEN
100
AcDbCircle
 10
19.522211
 20
11.755787
 30
0.0
 40
0.018274
  0
LINE
  5
1149
100
AcDbEntity
  8
CENTER
100
AcDbLine
 10
19.522211
 20
11.983014
 30
0.0
 11
19.522211
 21
11.897938
 31
0.0
  0
CIRCLE
  5
114A
100
AcDbEntity
  8
COOLING
100
AcDbCircle
 10
19.522211
 20
11.940826
 30
0.0
 40
0.0236
  0
LINE
  5
114B
100
AcDbEntity
  8
CENTER
100
AcDbLine
 10
19.567095
 20
11.940826
 30
0.0
 11
19.477477
 21
11.940826
 31
0.0
  0
CIRCLE
  5
114C
100
AcDbEntity
  8
HIDDEN
100
AcDbCircle
 10
19.522211
 20
11.940826
 30
0.0
 40
0.018274
  0
LINE
  5
114D
100
AcDbEntity
  8
CENTER
100
AcDbLine
 10
19.522211
 20
12.534194
 30
0.0
 11
19.522211
 21
12.449118
 31
0.0
  0
CIRCLE
  5
114E
100
AcDbEntity
  8
COOLING
100
AcDbCircle
 10
19.522211
 20
12.492006
 30
0.0
 40
0.0236
  0
LINE
  5
114F
100
AcDbEntity
  8
CENTER
100
AcDbLine
 10
19.567095
 20
12.492006
 30
0.0
 11
19.477477
 21
12.492006
 31
0.0
  0
CIRCLE
  5
1150
100
AcDbEntity
  8
HIDDEN
100
AcDbCircle
 10
19.522211
 20
12.492006
 30
0.0
 40
0.018274
  0
LINE
  5
1151
100
AcDbEntity
  8
CENTER
100
AcDbLine
 10
19.522211
 20
12.719233
 30
0.0
 11
19.522211
 21
12.634157
 31
0.0
  0
CIRCLE
  5
1152
100
AcDbEntity
  8
COOLING
100
AcDbCircle
 10
19.522211
 20
12.677045
 30
0.0
 40
0.0236
  0
LINE
  5
1153
100
AcDbEntity
  8
CENTER
100
AcDbLine
 10
19.567095
 20
12.677045
 30
0.0
 11
19.477477
 21
12.677045
 31
0.0
  0
CIRCLE
  5
1154
100
AcDbEntity
  8
HIDDEN
100
AcDbCircle
 10
19.522211
 20
12.677045
 30
0.0
 40
0.018274
  0
CIRCLE
  5
1155
100
AcDbEntity
  8
STRAIN-R
100
AcDbCircle
 10
24.6875
 20
11.125
 30
0.0
 40
0.068
  0
CIRCLE
  5
1156
100
AcDbEntity
  8
HIDDEN
100
AcDbCircle
 10
24.6875
 20
11.125
 30
0.0
 40
0.082
  0
LINE
  5
1157
100
AcDbEntity
  8
CENTER
100
AcDbLine
 10
24.664833
 20
11.125
 30
0.0
 11
24.710167
 21
11.125
 31
0.0
  0
LINE
  5
1158
100
AcDbEntity
  8
CENTER
100
AcDbLine
 10
24.6875
 20
11.102333
 30
0.0
 11
24.6875
 21
11.147667
 31
0.0
  0
LINE
  5
1159
100
AcDbEntity
  8
CENTER
100
AcDbLine
 10
24.732833
 20
11.125
 30
0.0
 11
24.8805
 21
11.125
 31
0.0
  0
LINE
  5
115A
100
AcDbEntity
  8
CENTER
100
AcDbLine
 10
24.6875
 20
11.170333
 30
0.0
 11
24.6875
 21
11.318
 31
0.0
  0
LINE
  5
115B
100
AcDbEntity
  8
CENTER
100
AcDbLine
 10
24.642167
 20
11.125
 30
0.0
 11
24.4945
 21
11.125
 31
0.0
  0
LINE
  5
115C
100
AcDbEntity
  8
CENTER
100
AcDbLine
 10
24.6875
 20
11.079667
 30
0.0
 11
24.6875
 21
10.932
 31
0.0
  0
CIRCLE
  5
115D
100
AcDbEntity
  8
BASE
100
AcDbCircle
 10
24.6875
 20
11.125
 30
0.0
 40
0.15625
  0
CIRCLE
  5
115E
100
AcDbEntity
  8
BASE
100
AcDbCircle
 10
24.6875
 20
11.125
 30
0.0
 40
0.0885
  0
LINE
  5
115F
100
AcDbEntity
  8
CENTER
100
AcDbLine
 10
24.635417
 20
11.125
 30
0.0
 11
24.739583
 21
11.125
 31
0.0
  0
LINE
  5
1160
100
AcDbEntity
  8
CENTER
100
AcDbLine
 10
24.6875
 20
11.072917
 30
0.0
 11
24.6875
 21
11.177083
 31
0.0
  0
LINE
  5
1161
100
AcDbEntity
  8
CENTER
100
AcDbLine
 10
24.791667
 20
11.125
 30
0.0
 11
24.96875
 21
11.125
 31
0.0
  0
LINE
  5
1162
100
AcDbEntity
  8
CENTER
100
AcDbLine
 10
24.6875
 20
11.229167
 30
0.0
 11
24.6875
 21
11.40625
 31
0.0
  0
LINE
  5
1163
100
AcDbEntity
  8
CENTER
100
AcDbLine
 10
24.583333
 20
11.125
 30
0.0
 11
24.40625
 21
11.125
 31
0.0
  0
LINE
  5
1164
100
AcDbEntity
  8
CENTER
100
AcDbLine
 10
24.6875
 20
11.020833
 30
0.0
 11
24.6875
 21
10.84375
 31
0.0
  0
CIRCLE
  5
1165
100
AcDbEntity
  8
STRAIN-R
100
AcDbCircle
 10
24.6875
 20
13.25
 30
0.0
 40
0.068
  0
CIRCLE
  5
1166
100
AcDbEntity
  8
HIDDEN
100
AcDbCircle
 10
24.6875
 20
13.25
 30
0.0
 40
0.082
  0
LINE
  5
1167
100
AcDbEntity
  8
CENTER
100
AcDbLine
 10
24.664833
 20
13.25
 30
0.0
 11
24.710167
 21
13.25
 31
0.0
  0
LINE
  5
1168
100
AcDbEntity
  8
CENTER
100
AcDbLine
 10
24.6875
 20
13.227333
 30
0.0
 11
24.6875
 21
13.272667
 31
0.0
  0
LINE
  5
1169
100
AcDbEntity
  8
CENTER
100
AcDbLine
 10
24.732833
 20
13.25
 30
0.0
 11
24.8805
 21
13.25
 31
0.0
  0
LINE
  5
116A
100
AcDbEntity
  8
CENTER
100
AcDbLine
 10
24.6875
 20
13.295333
 30
0.0
 11
24.6875
 21
13.443
 31
0.0
  0
LINE
  5
116B
100
AcDbEntity
  8
CENTER
100
AcDbLine
 10
24.642167
 20
13.25
 30
0.0
 11
24.4945
 21
13.25
 31
0.0
  0
LINE
  5
116C
100
AcDbEntity
  8
CENTER
100
AcDbLine
 10
24.6875
 20
13.204667
 30
0.0
 11
24.6875
 21
13.057
 31
0.0
  0
CIRCLE
  5
116D
100
AcDbEntity
  8
BASE
100
AcDbCircle
 10
24.6875
 20
13.25
 30
0.0
 40
0.15625
  0
CIRCLE
  5
116E
100
AcDbEntity
  8
BASE
100
AcDbCircle
 10
24.6875
 20
13.25
 30
0.0
 40
0.0885
  0
LINE
  5
116F
100
AcDbEntity
  8
CENTER
100
AcDbLine
 10
24.635417
 20
13.25
 30
0.0
 11
24.739583
 21
13.25
 31
0.0
  0
LINE
  5
1170
100
AcDbEntity
  8
CENTER
100
AcDbLine
 10
24.6875
 20
13.197917
 30
0.0
 11
24.6875
 21
13.302083
 31
0.0
  0
LINE
  5
1171
100
AcDbEntity
  8
CENTER
100
AcDbLine
 10
24.791667
 20
13.25
 30
0.0
 11
24.96875
 21
13.25
 31
0.0
  0
LINE
  5
1172
100
AcDbEntity
  8
CENTER
100
AcDbLine
 10
24.6875
 20
13.354167
 30
0.0
 11
24.6875
 21
13.53125
 31
0.0
  0
LINE
  5
1173
100
AcDbEntity
  8
CENTER
100
AcDbLine
 10
24.583333
 20
13.25
 30
0.0
 11
24.40625
 21
13.25
 31
0.0
  0
LINE
  5
1174
100
AcDbEntity
  8
CENTER
100
AcDbLine
 10
24.6875
 20
13.145833
 30
0.0
 11
24.6875
 21
12.96875
 31
0.0
  0
CIRCLE
  5
1175
100
AcDbEntity
  8
BASE
100
AcDbCircle
 10
3.9375
 20
11.125
 30
0.0
 40
0.15625
  0
CIRCLE
  5
1176
100
AcDbEntity
  8
BASE
100
AcDbCircle
 10
3.9375
 20
11.125
 30
0.0
 40
0.0885
  0
LINE
  5
1177
100
AcDbEntity
  8
CENTER
100
AcDbLine
 10
3.885417
 20
11.125
 30
0.0
 11
3.989583
 21
11.125
 31
0.0
  0
LINE
  5
1178
100
AcDbEntity
  8
CENTER
100
AcDbLine
 10
3.9375
 20
11.072917
 30
0.0
 11
3.9375
 21
11.177083
 31
0.0
  0
LINE
  5
1179
100
AcDbEntity
  8
CENTER
100
AcDbLine
 10
4.041667
 20
11.125
 30
0.0
 11
4.21875
 21
11.125
 31
0.0
  0
LINE
  5
117A
100
AcDbEntity
  8
CENTER
100
AcDbLine
 10
3.9375
 20
11.229167
 30
0.0
 11
3.9375
 21
11.40625
 31
0.0
  0
LINE
  5
117B
100
AcDbEntity
  8
CENTER
100
AcDbLine
 10
3.833333
 20
11.125
 30
0.0
 11
3.65625
 21
11.125
 31
0.0
  0
LINE
  5
117C
100
AcDbEntity
  8
CENTER
100
AcDbLine
 10
3.9375
 20
11.020833
 30
0.0
 11
3.9375
 21
10.84375
 31
0.0
  0
CIRCLE
  5
117D
100
AcDbEntity
  8
STRAIN-R
100
AcDbCircle
 10
3.9375
 20
11.125
 30
0.0
 40
0.068
  0
CIRCLE
  5
117E
100
AcDbEntity
  8
HIDDEN
100
AcDbCircle
 10
3.9375
 20
11.125
 30
0.0
 40
0.082
  0
LINE
  5
117F
100
AcDbEntity
  8
CENTER
100
AcDbLine
 10
3.914833
 20
11.125
 30
0.0
 11
3.960167
 21
11.125
 31
0.0
  0
LINE
  5
1180
100
AcDbEntity
  8
CENTER
100
AcDbLine
 10
3.9375
 20
11.102333
 30
0.0
 11
3.9375
 21
11.147667
 31
0.0
  0
LINE
  5
1181
100
AcDbEntity
  8
CENTER
100
AcDbLine
 10
3.982833
 20
11.125
 30
0.0
 11
4.1305
 21
11.125
 31
0.0
  0
LINE
  5
1182
100
AcDbEntity
  8
CENTER
100
AcDbLine
 10
3.9375
 20
11.170333
 30
0.0
 11
3.9375
 21
11.318
 31
0.0
  0
LINE
  5
1183
100
AcDbEntity
  8
CENTER
100
AcDbLine
 10
3.892167
 20
11.125
 30
0.0
 11
3.7445
 21
11.125
 31
0.0
  0
LINE
  5
1184
100
AcDbEntity
  8
CENTER
100
AcDbLine
 10
3.9375
 20
11.079667
 30
0.0
 11
3.9375
 21
10.932
 31
0.0
  0
CIRCLE
  5
1185
100
AcDbEntity
  8
BASE
100
AcDbCircle
 10
3.9375
 20
13.25
 30
0.0
 40
0.15625
  0
CIRCLE
  5
1186
100
AcDbEntity
  8
BASE
100
AcDbCircle
 10
3.9375
 20
13.25
 30
0.0
 40
0.0885
  0
LINE
  5
1187
100
AcDbEntity
  8
CENTER
100
AcDbLine
 10
3.885417
 20
13.25
 30
0.0
 11
3.989583
 21
13.25
 31
0.0
  0
LINE
  5
1188
100
AcDbEntity
  8
CENTER
100
AcDbLine
 10
3.9375
 20
13.197917
 30
0.0
 11
3.9375
 21
13.302083
 31
0.0
  0
LINE
  5
1189
100
AcDbEntity
  8
CENTER
100
AcDbLine
 10
4.041667
 20
13.25
 30
0.0
 11
4.21875
 21
13.25
 31
0.0
  0
LINE
  5
118A
100
AcDbEntity
  8
CENTER
100
AcDbLine
 10
3.9375
 20
13.354167
 30
0.0
 11
3.9375
 21
13.53125
 31
0.0
  0
LINE
  5
118B
100
AcDbEntity
  8
CENTER
100
AcDbLine
 10
3.833333
 20
13.25
 30
0.0
 11
3.65625
 21
13.25
 31
0.0
  0
LINE
  5
118C
100
AcDbEntity
  8
CENTER
100
AcDbLine
 10
3.9375
 20
13.145833
 30
0.0
 11
3.9375
 21
12.96875
 31
0.0
  0
CIRCLE
  5
118D
100
AcDbEntity
  8
STRAIN-R
100
AcDbCircle
 10
3.9375
 20
13.25
 30
0.0
 40
0.068
  0
CIRCLE
  5
118E
100
AcDbEntity
  8
HIDDEN
100
AcDbCircle
 10
3.9375
 20
13.25
 30
0.0
 40
0.082
  0
LINE
  5
118F
100
AcDbEntity
  8
CENTER
100
AcDbLine
 10
3.914833
 20
13.25
 30
0.0
 11
3.960167
 21
13.25
 31
0.0
  0
LINE
  5
1190
100
AcDbEntity
  8
CENTER
100
AcDbLine
 10
3.9375
 20
13.227333
 30
0.0
 11
3.9375
 21
13.272667
 31
0.0
  0
LINE
  5
1191
100
AcDbEntity
  8
CENTER
100
AcDbLine
 10
3.982833
 20
13.25
 30
0.0
 11
4.1305
 21
13.25
 31
0.0
  0
LINE
  5
1192
100
AcDbEntity
  8
CENTER
100
AcDbLine
 10
3.9375
 20
13.295333
 30
0.0
 11
3.9375
 21
13.443
 31
0.0
  0
LINE
  5
1193
100
AcDbEntity
  8
CENTER
100
AcDbLine
 10
3.892167
 20
13.25
 30
0.0
 11
3.7445
 21
13.25
 31
0.0
  0
LINE
  5
1194
100
AcDbEntity
  8
CENTER
100
AcDbLine
 10
3.9375
 20
13.204667
 30
0.0
 11
3.9375
 21
13.057
 31
0.0
  0
CIRCLE
  5
1195
100
AcDbEntity
  8
STRAIN-R
100
AcDbCircle
 10
1.5
 20
10.5
 30
0.0
 40
0.068
  0
CIRCLE
  5
1196
100
AcDbEntity
  8
HIDDEN
100
AcDbCircle
 10
1.5
 20
10.5
 30
0.0
 40
0.082
  0
LINE
  5
1197
100
AcDbEntity
  8
CENTER
100
AcDbLine
 10
1.477333
 20
10.5
 30
0.0
 11
1.522667
 21
10.5
 31
0.0
  0
LINE
  5
1198
100
AcDbEntity
  8
CENTER
100
AcDbLine
 10
1.5
 20
10.477333
 30
0.0
 11
1.5
 21
10.522667
 31
0.0
  0
LINE
  5
1199
100
AcDbEntity
  8
CENTER
100
AcDbLine
 10
1.545333
 20
10.5
 30
0.0
 11
1.693
 21
10.5
 31
0.0
  0
LINE
  5
119A
100
AcDbEntity
  8
CENTER
100
AcDbLine
 10
1.5
 20
10.545333
 30
0.0
 11
1.5
 21
10.693
 31
0.0
  0
LINE
  5
119B
100
AcDbEntity
  8
CENTER
100
AcDbLine
 10
1.454667
 20
10.5
 30
0.0
 11
1.307
 21
10.5
 31
0.0
  0
LINE
  5
119C
100
AcDbEntity
  8
CENTER
100
AcDbLine
 10
1.5
 20
10.454667
 30
0.0
 11
1.5
 21
10.307
 31
0.0
  0
CIRCLE
  5
119D
100
AcDbEntity
  8
STRAIN-R
100
AcDbCircle
 10
1.5
 20
13.875
 30
0.0
 40
0.068
  0
CIRCLE
  5
119E
100
AcDbEntity
  8
HIDDEN
100
AcDbCircle
 10
1.5
 20
13.875
 30
0.0
 40
0.082
  0
LINE
  5
119F
100
AcDbEntity
  8
CENTER
100
AcDbLine
 10
1.477333
 20
13.875
 30
0.0
 11
1.522667
 21
13.875
 31
0.0
  0
LINE
  5
11A0
100
AcDbEntity
  8
CENTER
100
AcDbLine
 10
1.5
 20
13.852333
 30
0.0
 11
1.5
 21
13.897667
 31
0.0
  0
LINE
  5
11A1
100
AcDbEntity
  8
CENTER
100
AcDbLine
 10
1.545333
 20
13.875
 30
0.0
 11
1.693
 21
13.875
 31
0.0
  0
LINE
  5
11A2
100
AcDbEntity
  8
CENTER
100
AcDbLine
 10
1.5
 20
13.920333
 30
0.0
 11
1.5
 21
14.068
 31
0.0
  0
LINE
  5
11A3
100
AcDbEntity
  8
CENTER
100
AcDbLine
 10
1.454667
 20
13.875
 30
0.0
 11
1.307
 21
13.875
 31
0.0
  0
LINE
  5
11A4
100
AcDbEntity
  8
CENTER
100
AcDbLine
 10
1.5
 20
13.829667
 30
0.0
 11
1.5
 21
13.682
 31
0.0
  0
CIRCLE
  5
11A5
100
AcDbEntity
  8
STRAIN-R
100
AcDbCircle
 10
27.5
 20
10.5
 30
0.0
 40
0.068
  0
CIRCLE
  5
11A6
100
AcDbEntity
  8
HIDDEN
100
AcDbCircle
 10
27.5
 20
10.5
 30
0.0
 40
0.082
  0
LINE
  5
11A7
100
AcDbEntity
  8
CENTER
100
AcDbLine
 10
27.477333
 20
10.5
 30
0.0
 11
27.522667
 21
10.5
 31
0.0
  0
LINE
  5
11A8
100
AcDbEntity
  8
CENTER
100
AcDbLine
 10
27.5
 20
10.477333
 30
0.0
 11
27.5
 21
10.522667
 31
0.0
  0
LINE
  5
11A9
100
AcDbEntity
  8
CENTER
100
AcDbLine
 10
27.545333
 20
10.5
 30
0.0
 11
27.693
 21
10.5
 31
0.0
  0
LINE
  5
11AA
100
AcDbEntity
  8
CENTER
100
AcDbLine
 10
27.5
 20
10.545333
 30
0.0
 11
27.5
 21
10.693
 31
0.0
  0
LINE
  5
11AB
100
AcDbEntity
  8
CENTER
100
AcDbLine
 10
27.454667
 20
10.5
 30
0.0
 11
27.307
 21
10.5
 31
0.0
  0
LINE
  5
11AC
100
AcDbEntity
  8
CENTER
100
AcDbLine
 10
27.5
 20
10.454667
 30
0.0
 11
27.5
 21
10.307
 31
0.0
  0
CIRCLE
  5
11AD
100
AcDbEntity
  8
STRAIN-R
100
AcDbCircle
 10
27.5
 20
13.875
 30
0.0
 40
0.068
  0
CIRCLE
  5
11AE
100
AcDbEntity
  8
HIDDEN
100
AcDbCircle
 10
27.5
 20
13.875
 30
0.0
 40
0.082
  0
LINE
  5
11AF
100
AcDbEntity
  8
CENTER
100
AcDbLine
 10
27.477333
 20
13.875
 30
0.0
 11
27.522667
 21
13.875
 31
0.0
  0
LINE
  5
11B0
100
AcDbEntity
  8
CENTER
100
AcDbLine
 10
27.5
 20
13.852333
 30
0.0
 11
27.5
 21
13.897667
 31
0.0
  0
LINE
  5
11B1
100
AcDbEntity
  8
CENTER
100
AcDbLine
 10
27.545333
 20
13.875
 30
0.0
 11
27.693
 21
13.875
 31
0.0
  0
LINE
  5
11B2
100
AcDbEntity
  8
CENTER
100
AcDbLine
 10
27.5
 20
13.920333
 30
0.0
 11
27.5
 21
14.068
 31
0.0
  0
LINE
  5
11B3
100
AcDbEntity
  8
CENTER
100
AcDbLine
 10
27.454667
 20
13.875
 30
0.0
 11
27.307
 21
13.875
 31
0.0
  0
LINE
  5
11B4
100
AcDbEntity
  8
CENTER
100
AcDbLine
 10
27.5
 20
13.829667
 30
0.0
 11
27.5
 21
13.682
 31
0.0
  0
CIRCLE
  5
11B5
100
AcDbEntity
  8
BASE
100
AcDbCircle
 10
1.5
 20
10.5
 30
0.0
 40
0.15625
  0
CIRCLE
  5
11B6
100
AcDbEntity
  8
BASE
100
AcDbCircle
 10
1.5
 20
10.5
 30
0.0
 40
0.0885
  0
LINE
  5
11B7
100
AcDbEntity
  8
CENTER
100
AcDbLine
 10
1.447917
 20
10.5
 30
0.0
 11
1.552083
 21
10.5
 31
0.0
  0
LINE
  5
11B8
100
AcDbEntity
  8
CENTER
100
AcDbLine
 10
1.5
 20
10.447917
 30
0.0
 11
1.5
 21
10.552083
 31
0.0
  0
LINE
  5
11B9
100
AcDbEntity
  8
CENTER
100
AcDbLine
 10
1.604167
 20
10.5
 30
0.0
 11
1.78125
 21
10.5
 31
0.0
  0
LINE
  5
11BA
100
AcDbEntity
  8
CENTER
100
AcDbLine
 10
1.5
 20
10.604167
 30
0.0
 11
1.5
 21
10.78125
 31
0.0
  0
LINE
  5
11BB
100
AcDbEntity
  8
CENTER
100
AcDbLine
 10
1.395833
 20
10.5
 30
0.0
 11
1.21875
 21
10.5
 31
0.0
  0
LINE
  5
11BC
100
AcDbEntity
  8
CENTER
100
AcDbLine
 10
1.5
 20
10.395833
 30
0.0
 11
1.5
 21
10.21875
 31
0.0
  0
CIRCLE
  5
11BD
100
AcDbEntity
  8
BASE
100
AcDbCircle
 10
1.5
 20
13.875
 30
0.0
 40
0.15625
  0
CIRCLE
  5
11BE
100
AcDbEntity
  8
BASE
100
AcDbCircle
 10
1.5
 20
13.875
 30
0.0
 40
0.0885
  0
LINE
  5
11BF
100
AcDbEntity
  8
CENTER
100
AcDbLine
 10
1.447917
 20
13.875
 30
0.0
 11
1.552083
 21
13.875
 31
0.0
  0
LINE
  5
11C0
100
AcDbEntity
  8
CENTER
100
AcDbLine
 10
1.5
 20
13.822917
 30
0.0
 11
1.5
 21
13.927083
 31
0.0
  0
LINE
  5
11C1
100
AcDbEntity
  8
CENTER
100
AcDbLine
 10
1.604167
 20
13.875
 30
0.0
 11
1.78125
 21
13.875
 31
0.0
  0
LINE
  5
11C2
100
AcDbEntity
  8
CENTER
100
AcDbLine
 10
1.5
 20
13.979167
 30
0.0
 11
1.5
 21
14.15625
 31
0.0
  0
LINE
  5
11C3
100
AcDbEntity
  8
CENTER
100
AcDbLine
 10
1.395833
 20
13.875
 30
0.0
 11
1.21875
 21
13.875
 31
0.0
  0
LINE
  5
11C4
100
AcDbEntity
  8
CENTER
100
AcDbLine
 10
1.5
 20
13.770833
 30
0.0
 11
1.5
 21
13.59375
 31
0.0
  0
CIRCLE
  5
11C5
100
AcDbEntity
  8
BASE
100
AcDbCircle
 10
27.5
 20
10.5
 30
0.0
 40
0.15625
  0
CIRCLE
  5
11C6
100
AcDbEntity
  8
BASE
100
AcDbCircle
 10
27.5
 20
10.5
 30
0.0
 40
0.0885
  0
LINE
  5
11C7
100
AcDbEntity
  8
CENTER
100
AcDbLine
 10
27.447917
 20
10.5
 30
0.0
 11
27.552083
 21
10.5
 31
0.0
  0
LINE
  5
11C8
100
AcDbEntity
  8
CENTER
100
AcDbLine
 10
27.5
 20
10.447917
 30
0.0
 11
27.5
 21
10.552083
 31
0.0
  0
LINE
  5
11C9
100
AcDbEntity
  8
CENTER
100
AcDbLine
 10
27.604167
 20
10.5
 30
0.0
 11
27.78125
 21
10.5
 31
0.0
  0
LINE
  5
11CA
100
AcDbEntity
  8
CENTER
100
AcDbLine
 10
27.5
 20
10.604167
 30
0.0
 11
27.5
 21
10.78125
 31
0.0
  0
LINE
  5
11CB
100
AcDbEntity
  8
CENTER
100
AcDbLine
 10
27.395833
 20
10.5
 30
0.0
 11
27.21875
 21
10.5
 31
0.0
  0
LINE
  5
11CC
100
AcDbEntity
  8
CENTER
100
AcDbLine
 10
27.5
 20
10.395833
 30
0.0
 11
27.5
 21
10.21875
 31
0.0
  0
CIRCLE
  5
11CD
100
AcDbEntity
  8
BASE
100
AcDbCircle
 10
27.5
 20
13.875
 30
0.0
 40
0.15625
  0
CIRCLE
  5
11CE
100
AcDbEntity
  8
BASE
100
AcDbCircle
 10
27.5
 20
13.875
 30
0.0
 40
0.0885
  0
LINE
  5
11CF
100
AcDbEntity
  8
CENTER
100
AcDbLine
 10
27.447917
 20
13.875
 30
0.0
 11
27.552083
 21
13.875
 31
0.0
  0
LINE
  5
11D0
100
AcDbEntity
  8
CENTER
100
AcDbLine
 10
27.5
 20
13.822917
 30
0.0
 11
27.5
 21
13.927083
 31
0.0
  0
LINE
  5
11D1
100
AcDbEntity
  8
CENTER
100
AcDbLine
 10
27.604167
 20
13.875
 30
0.0
 11
27.78125
 21
13.875
 31
0.0
  0
LINE
  5
11D2
100
AcDbEntity
  8
CENTER
100
AcDbLine
 10
27.5
 20
13.979167
 30
0.0
 11
27.5
 21
14.15625
 31
0.0
  0
LINE
  5
11D3
100
AcDbEntity
  8
CENTER
100
AcDbLine
 10
27.395833
 20
13.875
 30
0.0
 11
27.21875
 21
13.875
 31
0.0
  0
LINE
  5
11D4
100
AcDbEntity
  8
CENTER
100
AcDbLine
 10
27.5
 20
13.770833
 30
0.0
 11
27.5
 21
13.59375
 31
0.0
  0
CIRCLE
  5
11D5
100
AcDbEntity
  8
C-FIBER
100
AcDbCircle
 10
21.1875
 20
11.5
 30
0.0
 40
0.14065
  0
CIRCLE
  5
11D6
100
AcDbEntity
  8
C-FIBER
100
AcDbCircle
 10
21.1875
 20
11.5
 30
0.0
 40
0.07475
  0
LINE
  5
11D7
100
AcDbEntity
  8
CENTER
100
AcDbLine
 10
21.140617
 20
11.5
 30
0.0
 11
21.234383
 21
11.5
 31
0.0
  0
LINE
  5
11D8
100
AcDbEntity
  8
CENTER
100
AcDbLine
 10
21.1875
 20
11.453117
 30
0.0
 11
21.1875
 21
11.546883
 31
0.0
  0
LINE
  5
11D9
100
AcDbEntity
  8
CENTER
100
AcDbLine
 10
21.281267
 20
11.5
 30
0.0
 11
21.45315
 21
11.5
 31
0.0
  0
LINE
  5
11DA
100
AcDbEntity
  8
CENTER
100
AcDbLine
 10
21.1875
 20
11.593767
 30
0.0
 11
21.1875
 21
11.76565
 31
0.0
  0
LINE
  5
11DB
100
AcDbEntity
  8
CENTER
100
AcDbLine
 10
21.093733
 20
11.5
 30
0.0
 11
20.92185
 21
11.5
 31
0.0
  0
LINE
  5
11DC
100
AcDbEntity
  8
CENTER
100
AcDbLine
 10
21.1875
 20
11.406233
 30
0.0
 11
21.1875
 21
11.23435
 31
0.0
  0
CIRCLE
  5
11DD
100
AcDbEntity
  8
C-FIBER
100
AcDbCircle
 10
21.1875
 20
12.875
 30
0.0
 40
0.14065
  0
CIRCLE
  5
11DE
100
AcDbEntity
  8
C-FIBER
100
AcDbCircle
 10
21.1875
 20
12.875
 30
0.0
 40
0.07475
  0
LINE
  5
11DF
100
AcDbEntity
  8
CENTER
100
AcDbLine
 10
21.140617
 20
12.875
 30
0.0
 11
21.234383
 21
12.875
 31
0.0
  0
LINE
  5
11E0
100
AcDbEntity
  8
CENTER
100
AcDbLine
 10
21.1875
 20
12.828117
 30
0.0
 11
21.1875
 21
12.921883
 31
0.0
  0
LINE
  5
11E1
100
AcDbEntity
  8
CENTER
100
AcDbLine
 10
21.281267
 20
12.875
 30
0.0
 11
21.45315
 21
12.875
 31
0.0
  0
LINE
  5
11E2
100
AcDbEntity
  8
CENTER
100
AcDbLine
 10
21.1875
 20
12.968767
 30
0.0
 11
21.1875
 21
13.14065
 31
0.0
  0
LINE
  5
11E3
100
AcDbEntity
  8
CENTER
100
AcDbLine
 10
21.093733
 20
12.875
 30
0.0
 11
20.92185
 21
12.875
 31
0.0
  0
LINE
  5
11E4
100
AcDbEntity
  8
CENTER
100
AcDbLine
 10
21.1875
 20
12.781233
 30
0.0
 11
21.1875
 21
12.60935
 31
0.0
  0
CIRCLE
  5
11E5
100
AcDbEntity
  8
C-FIBER
100
AcDbCircle
 10
7.3125
 20
11.5
 30
0.0
 40
0.14065
  0
CIRCLE
  5
11E6
100
AcDbEntity
  8
C-FIBER
100
AcDbCircle
 10
7.3125
 20
11.5
 30
0.0
 40
0.07475
  0
LINE
  5
11E7
100
AcDbEntity
  8
CENTER
100
AcDbLine
 10
7.265617
 20
11.5
 30
0.0
 11
7.359383
 21
11.5
 31
0.0
  0
LINE
  5
11E8
100
AcDbEntity
  8
CENTER
100
AcDbLine
 10
7.3125
 20
11.453117
 30
0.0
 11
7.3125
 21
11.546883
 31
0.0
  0
LINE
  5
11E9
100
AcDbEntity
  8
CENTER
100
AcDbLine
 10
7.406267
 20
11.5
 30
0.0
 11
7.57815
 21
11.5
 31
0.0
  0
LINE
  5
11EA
100
AcDbEntity
  8
CENTER
100
AcDbLine
 10
7.3125
 20
11.593767
 30
0.0
 11
7.3125
 21
11.76565
 31
0.0
  0
LINE
  5
11EB
100
AcDbEntity
  8
CENTER
100
AcDbLine
 10
7.218733
 20
11.5
 30
0.0
 11
7.04685
 21
11.5
 31
0.0
  0
LINE
  5
11EC
100
AcDbEntity
  8
CENTER
100
AcDbLine
 10
7.3125
 20
11.406233
 30
0.0
 11
7.3125
 21
11.23435
 31
0.0
  0
CIRCLE
  5
11ED
100
AcDbEntity
  8
C-FIBER
100
AcDbCircle
 10
7.3125
 20
12.875
 30
0.0
 40
0.14065
  0
CIRCLE
  5
11EE
100
AcDbEntity
  8
C-FIBER
100
AcDbCircle
 10
7.3125
 20
12.875
 30
0.0
 40
0.07475
  0
LINE
  5
11EF
100
AcDbEntity
  8
CENTER
100
AcDbLine
 10
7.265617
 20
12.875
 30
0.0
 11
7.359383
 21
12.875
 31
0.0
  0
LINE
  5
11F0
100
AcDbEntity
  8
CENTER
100
AcDbLine
 10
7.3125
 20
12.828117
 30
0.0
 11
7.3125
 21
12.921883
 31
0.0
  0
LINE
  5
11F1
100
AcDbEntity
  8
CENTER
100
AcDbLine
 10
7.406267
 20
12.875
 30
0.0
 11
7.57815
 21
12.875
 31
0.0
  0
LINE
  5
11F2
100
AcDbEntity
  8
CENTER
100
AcDbLine
 10
7.3125
 20
12.968767
 30
0.0
 11
7.3125
 21
13.14065
 31
0.0
  0
LINE
  5
11F3
100
AcDbEntity
  8
CENTER
100
AcDbLine
 10
7.218733
 20
12.875
 30
0.0
 11
7.04685
 21
12.875
 31
0.0
  0
LINE
  5
11F4
100
AcDbEntity
  8
CENTER
100
AcDbLine
 10
7.3125
 20
12.781233
 30
0.0
 11
7.3125
 21
12.60935
 31
0.0
  0
CIRCLE
  5
11F5
100
AcDbEntity
  8
C-FIBER
100
AcDbCircle
 10
8.625
 20
10.875
 30
0.0
 40
0.125
  0
LINE
  5
11F6
100
AcDbEntity
  8
CENTER
100
AcDbLine
 10
8.583333
 20
10.875
 30
0.0
 11
8.666667
 21
10.875
 31
0.0
  0
LINE
  5
11F7
100
AcDbEntity
  8
CENTER
100
AcDbLine
 10
8.625
 20
10.833333
 30
0.0
 11
8.625
 21
10.916667
 31
0.0
  0
LINE
  5
11F8
100
AcDbEntity
  8
CENTER
100
AcDbLine
 10
8.708333
 20
10.875
 30
0.0
 11
8.875
 21
10.875
 31
0.0
  0
LINE
  5
11F9
100
AcDbEntity
  8
CENTER
100
AcDbLine
 10
8.625
 20
10.958333
 30
0.0
 11
8.625
 21
11.125
 31
0.0
  0
LINE
  5
11FA
100
AcDbEntity
  8
CENTER
100
AcDbLine
 10
8.541667
 20
10.875
 30
0.0
 11
8.375
 21
10.875
 31
0.0
  0
LINE
  5
11FB
100
AcDbEntity
  8
CENTER
100
AcDbLine
 10
8.625
 20
10.791667
 30
0.0
 11
8.625
 21
10.625
 31
0.0
  0
CIRCLE
  5
11FC
100
AcDbEntity
  8
C-FIBER
100
AcDbCircle
 10
10.0
 20
13.875
 30
0.0
 40
0.125
  0
LINE
  5
11FD
100
AcDbEntity
  8
CENTER
100
AcDbLine
 10
9.958333
 20
13.875
 30
0.0
 11
10.041667
 21
13.875
 31
0.0
  0
LINE
  5
11FE
100
AcDbEntity
  8
CENTER
100
AcDbLine
 10
10.0
 20
13.833333
 30
0.0
 11
10.0
 21
13.916667
 31
0.0
  0
LINE
  5
11FF
100
AcDbEntity
  8
CENTER
100
AcDbLine
 10
10.083333
 20
13.875
 30
0.0
 11
10.25
 21
13.875
 31
0.0
  0
LINE
  5
1200
100
AcDbEntity
  8
CENTER
100
AcDbLine
 10
10.0
 20
13.958333
 30
0.0
 11
10.0
 21
14.125
 31
0.0
  0
LINE
  5
1201
100
AcDbEntity
  8
CENTER
100
AcDbLine
 10
9.916667
 20
13.875
 30
0.0
 11
9.75
 21
13.875
 31
0.0
  0
LINE
  5
1202
100
AcDbEntity
  8
CENTER
100
AcDbLine
 10
10.0
 20
13.791667
 30
0.0
 11
10.0
 21
13.625
 31
0.0
  0
CIRCLE
  5
1203
100
AcDbEntity
  8
C-FIBER
100
AcDbCircle
 10
19.875
 20
10.875
 30
0.0
 40
0.125
  0
LINE
  5
1204
100
AcDbEntity
  8
CENTER
100
AcDbLine
 10
19.833333
 20
10.875
 30
0.0
 11
19.916667
 21
10.875
 31
0.0
  0
LINE
  5
1205
100
AcDbEntity
  8
CENTER
100
AcDbLine
 10
19.875
 20
10.833333
 30
0.0
 11
19.875
 21
10.916667
 31
0.0
  0
LINE
  5
1206
100
AcDbEntity
  8
CENTER
100
AcDbLine
 10
19.958333
 20
10.875
 30
0.0
 11
20.125
 21
10.875
 31
0.0
  0
LINE
  5
1207
100
AcDbEntity
  8
CENTER
100
AcDbLine
 10
19.875
 20
10.958333
 30
0.0
 11
19.875
 21
11.125
 31
0.0
  0
LINE
  5
1208
100
AcDbEntity
  8
CENTER
100
AcDbLine
 10
19.791667
 20
10.875
 30
0.0
 11
19.625
 21
10.875
 31
0.0
  0
LINE
  5
1209
100
AcDbEntity
  8
CENTER
100
AcDbLine
 10
19.875
 20
10.791667
 30
0.0
 11
19.875
 21
10.625
 31
0.0
  0
CIRCLE
  5
120A
100
AcDbEntity
  8
C-FIBER
100
AcDbCircle
 10
18.5
 20
13.875
 30
0.0
 40
0.125
  0
LINE
  5
120B
100
AcDbEntity
  8
CENTER
100
AcDbLine
 10
18.458333
 20
13.875
 30
0.0
 11
18.541667
 21
13.875
 31
0.0
  0
LINE
  5
120C
100
AcDbEntity
  8
CENTER
100
AcDbLine
 10
18.5
 20
13.833333
 30
0.0
 11
18.5
 21
13.916667
 31
0.0
  0
LINE
  5
120D
100
AcDbEntity
  8
CENTER
100
AcDbLine
 10
18.583333
 20
13.875
 30
0.0
 11
18.75
 21
13.875
 31
0.0
  0
LINE
  5
120E
100
AcDbEntity
  8
CENTER
100
AcDbLine
 10
18.5
 20
13.958333
 30
0.0
 11
18.5
 21
14.125
 31
0.0
  0
LINE
  5
120F
100
AcDbEntity
  8
CENTER
100
AcDbLine
 10
18.416667
 20
13.875
 30
0.0
 11
18.25
 21
13.875
 31
0.0
  0
LINE
  5
1210
100
AcDbEntity
  8
CENTER
100
AcDbLine
 10
18.5
 20
13.791667
 30
0.0
 11
18.5
 21
13.625
 31
0.0
  0
CIRCLE
  5
1211
100
AcDbEntity
  8
C-FIBER
100
AcDbCircle
 10
18.5
 20
10.875
 30
0.0
 40
0.07475
  0
CIRCLE
  5
1212
100
AcDbEntity
  8
HIDDEN
100
AcDbCircle
 10
18.5
 20
10.875
 30
0.0
 40
0.095
  0
LINE
  5
1213
100
AcDbEntity
  8
CENTER
100
AcDbLine
 10
18.475083
 20
10.875
 30
0.0
 11
18.524917
 21
10.875
 31
0.0
  0
LINE
  5
1214
100
AcDbEntity
  8
CENTER
100
AcDbLine
 10
18.5
 20
10.850083
 30
0.0
 11
18.5
 21
10.899917
 31
0.0
  0
LINE
  5
1215
100
AcDbEntity
  8
CENTER
100
AcDbLine
 10
18.549833
 20
10.875
 30
0.0
 11
18.69975
 21
10.875
 31
0.0
  0
LINE
  5
1216
100
AcDbEntity
  8
CENTER
100
AcDbLine
 10
18.5
 20
10.924833
 30
0.0
 11
18.5
 21
11.07475
 31
0.0
  0
LINE
  5
1217
100
AcDbEntity
  8
CENTER
100
AcDbLine
 10
18.450167
 20
10.875
 30
0.0
 11
18.30025
 21
10.875
 31
0.0
  0
LINE
  5
1218
100
AcDbEntity
  8
CENTER
100
AcDbLine
 10
18.5
 20
10.825167
 30
0.0
 11
18.5
 21
10.67525
 31
0.0
  0
CIRCLE
  5
1219
100
AcDbEntity
  8
C-FIBER
100
AcDbCircle
 10
19.875
 20
13.875
 30
0.0
 40
0.07475
  0
CIRCLE
  5
121A
100
AcDbEntity
  8
HIDDEN
100
AcDbCircle
 10
19.875
 20
13.875
 30
0.0
 40
0.095
  0
LINE
  5
121B
100
AcDbEntity
  8
CENTER
100
AcDbLine
 10
19.850083
 20
13.875
 30
0.0
 11
19.899917
 21
13.875
 31
0.0
  0
LINE
  5
121C
100
AcDbEntity
  8
CENTER
100
AcDbLine
 10
19.875
 20
13.850083
 30
0.0
 11
19.875
 21
13.899917
 31
0.0
  0
LINE
  5
121D
100
AcDbEntity
  8
CENTER
100
AcDbLine
 10
19.924833
 20
13.875
 30
0.0
 11
20.07475
 21
13.875
 31
0.0
  0
LINE
  5
121E
100
AcDbEntity
  8
CENTER
100
AcDbLine
 10
19.875
 20
13.924833
 30
0.0
 11
19.875
 21
14.07475
 31
0.0
  0
LINE
  5
121F
100
AcDbEntity
  8
CENTER
100
AcDbLine
 10
19.825167
 20
13.875
 30
0.0
 11
19.67525
 21
13.875
 31
0.0
  0
LINE
  5
1220
100
AcDbEntity
  8
CENTER
100
AcDbLine
 10
19.875
 20
13.825167
 30
0.0
 11
19.875
 21
13.67525
 31
0.0
  0
CIRCLE
  5
1221
100
AcDbEntity
  8
C-FIBER
100
AcDbCircle
 10
8.625
 20
13.875
 30
0.0
 40
0.07475
  0
CIRCLE
  5
1222
100
AcDbEntity
  8
HIDDEN
100
AcDbCircle
 10
8.625
 20
13.875
 30
0.0
 40
0.095
  0
LINE
  5
1223
100
AcDbEntity
  8
CENTER
100
AcDbLine
 10
8.600083
 20
13.875
 30
0.0
 11
8.649917
 21
13.875
 31
0.0
  0
LINE
  5
1224
100
AcDbEntity
  8
CENTER
100
AcDbLine
 10
8.625
 20
13.850083
 30
0.0
 11
8.625
 21
13.899917
 31
0.0
  0
LINE
  5
1225
100
AcDbEntity
  8
CENTER
100
AcDbLine
 10
8.674833
 20
13.875
 30
0.0
 11
8.82475
 21
13.875
 31
0.0
  0
LINE
  5
1226
100
AcDbEntity
  8
CENTER
100
AcDbLine
 10
8.625
 20
13.924833
 30
0.0
 11
8.625
 21
14.07475
 31
0.0
  0
LINE
  5
1227
100
AcDbEntity
  8
CENTER
100
AcDbLine
 10
8.575167
 20
13.875
 30
0.0
 11
8.42525
 21
13.875
 31
0.0
  0
LINE
  5
1228
100
AcDbEntity
  8
CENTER
100
AcDbLine
 10
8.625
 20
13.825167
 30
0.0
 11
8.625
 21
13.67525
 31
0.0
  0
CIRCLE
  5
1229
100
AcDbEntity
  8
C-FIBER
100
AcDbCircle
 10
10.0
 20
10.875
 30
0.0
 40
0.07475
  0
CIRCLE
  5
122A
100
AcDbEntity
  8
HIDDEN
100
AcDbCircle
 10
10.0
 20
10.875
 30
0.0
 40
0.095
  0
LINE
  5
122B
100
AcDbEntity
  8
CENTER
100
AcDbLine
 10
9.975083
 20
10.875
 30
0.0
 11
10.024917
 21
10.875
 31
0.0
  0
LINE
  5
122C
100
AcDbEntity
  8
CENTER
100
AcDbLine
 10
10.0
 20
10.850083
 30
0.0
 11
10.0
 21
10.899917
 31
0.0
  0
LINE
  5
122D
100
AcDbEntity
  8
CENTER
100
AcDbLine
 10
10.049833
 20
10.875
 30
0.0
 11
10.19975
 21
10.875
 31
0.0
  0
LINE
  5
122E
100
AcDbEntity
  8
CENTER
100
AcDbLine
 10
10.0
 20
10.924833
 30
0.0
 11
10.0
 21
11.07475
 31
0.0
  0
LINE
  5
122F
100
AcDbEntity
  8
CENTER
100
AcDbLine
 10
9.950167
 20
10.875
 30
0.0
 11
9.80025
 21
10.875
 31
0.0
  0
LINE
  5
1230
100
AcDbEntity
  8
CENTER
100
AcDbLine
 10
10.0
 20
10.825167
 30
0.0
 11
10.0
 21
10.67525
 31
0.0
  0
LINE
  5
1231
100
AcDbEntity
  8
CABLE
100
AcDbLine
 10
2.83748
 20
10.666416
 30
0.0
 11
2.83748
 21
13.766416
 31
0.0
  0
LINE
  5
1232
100
AcDbEntity
  8
CABLE
100
AcDbLine
 10
2.83748
 20
13.766416
 30
0.0
 11
0.281566
 21
13.766416
 31
0.0
  0
LINE
  5
1233
100
AcDbEntity
  8
CABLE
100
AcDbLine
 10
0.281566
 20
13.766416
 30
0.0
 11
0.281566
 21
10.666416
 31
0.0
  0
LINE
  5
1234
100
AcDbEntity
  8
CABLE
100
AcDbLine
 10
0.281566
 20
10.666416
 30
0.0
 11
2.83748
 21
10.666416
 31
0.0
  0
LINE
  5
1235
100
AcDbEntity
  8
STRAIN-R
100
AcDbLine
 10
1.25
 20
4.5
 30
0.0
 11
1.25
 21
4.625
 31
0.0
  0
LINE
  5
1236
100
AcDbEntity
  8
STRAIN-R
100
AcDbLine
 10
1.25
 20
4.625
 30
0.0
 11
1.75
 21
4.625
 31
0.0
  0
LINE
  5
1237
100
AcDbEntity
  8
STRAIN-R
100
AcDbLine
 10
1.75
 20
4.625
 30
0.0
 11
1.75
 21
4.5
 31
0.0
  0
LINE
  5
1238
100
AcDbEntity
  8
STRAIN-R
100
AcDbLine
 10
1.75
 20
4.5
 30
0.0
 11
1.25
 21
4.5
 31
0.0
  0
LINE
  5
1239
100
AcDbEntity
  8
STRAIN-R
100
AcDbLine
 10
1.25
 20
3.5
 30
0.0
 11
1.25
 21
4.375
 31
0.0
  0
LINE
  5
123A
100
AcDbEntity
  8
STRAIN-R
100
AcDbLine
 10
1.25
 20
4.375
 30
0.0
 11
1.75
 21
4.375
 31
0.0
  0
LINE
  5
123B
100
AcDbEntity
  8
STRAIN-R
100
AcDbLine
 10
1.75
 20
4.375
 30
0.0
 11
1.75
 21
3.5
 31
0.0
  0
LINE
  5
123C
100
AcDbEntity
  8
STRAIN-R
100
AcDbLine
 10
1.75
 20
3.5
 30
0.0
 11
1.25
 21
3.5
 31
0.0
  0
LINE
  5
123D
100
AcDbEntity
  8
STRAIN-R
100
AcDbLine
 10
27.25
 20
10.25
 30
0.0
 11
27.25
 21
14.125
 31
0.0
  0
LINE
  5
123E
100
AcDbEntity
  8
STRAIN-R
100
AcDbLine
 10
27.25
 20
14.125
 30
0.0
 11
27.75
 21
14.125
 31
0.0
  0
LINE
  5
123F
100
AcDbEntity
  8
STRAIN-R
100
AcDbLine
 10
27.75
 20
14.125
 30
0.0
 11
27.75
 21
10.25
 31
0.0
  0
LINE
  5
1240
100
AcDbEntity
  8
STRAIN-R
100
AcDbLine
 10
27.75
 20
10.25
 30
0.0
 11
27.25
 21
10.25
 31
0.0
  0
CIRCLE
  5
1241
100
AcDbEntity
  8
C-FIBER
100
AcDbCircle
 10
22.5
 20
10.5
 30
0.0
 40
0.1005
  0
LINE
  5
1242
100
AcDbEntity
  8
CENTER
100
AcDbLine
 10
22.4665
 20
10.5
 30
0.0
 11
22.5335
 21
10.5
 31
0.0
  0
LINE
  5
1243
100
AcDbEntity
  8
CENTER
100
AcDbLine
 10
22.5
 20
10.4665
 30
0.0
 11
22.5
 21
10.5335
 31
0.0
  0
LINE
  5
1244
100
AcDbEntity
  8
CENTER
100
AcDbLine
 10
22.567
 20
10.5
 30
0.0
 11
22.7255
 21
10.5
 31
0.0
  0
LINE
  5
1245
100
AcDbEntity
  8
CENTER
100
AcDbLine
 10
22.5
 20
10.567
 30
0.0
 11
22.5
 21
10.7255
 31
0.0
  0
LINE
  5
1246
100
AcDbEntity
  8
CENTER
100
AcDbLine
 10
22.433
 20
10.5
 30
0.0
 11
22.2745
 21
10.5
 31
0.0
  0
LINE
  5
1247
100
AcDbEntity
  8
CENTER
100
AcDbLine
 10
22.5
 20
10.433
 30
0.0
 11
22.5
 21
10.2745
 31
0.0
  0
CIRCLE
  5
1248
100
AcDbEntity
  8
C-FIBER
100
AcDbCircle
 10
22.5
 20
14.0
 30
0.0
 40
0.1005
  0
LINE
  5
1249
100
AcDbEntity
  8
CENTER
100
AcDbLine
 10
22.4665
 20
14.0
 30
0.0
 11
22.5335
 21
14.0
 31
0.0
  0
LINE
  5
124A
100
AcDbEntity
  8
CENTER
100
AcDbLine
 10
22.5
 20
13.9665
 30
0.0
 11
22.5
 21
14.0335
 31
0.0
  0
LINE
  5
124B
100
AcDbEntity
  8
CENTER
100
AcDbLine
 10
22.567
 20
14.0
 30
0.0
 11
22.7255
 21
14.0
 31
0.0
  0
LINE
  5
124C
100
AcDbEntity
  8
CENTER
100
AcDbLine
 10
22.5
 20
14.067
 30
0.0
 11
22.5
 21
14.2255
 31
0.0
  0
LINE
  5
124D
100
AcDbEntity
  8
CENTER
100
AcDbLine
 10
22.433
 20
14.0
 30
0.0
 11
22.2745
 21
14.0
 31
0.0
  0
LINE
  5
124E
100
AcDbEntity
  8
CENTER
100
AcDbLine
 10
22.5
 20
13.933
 30
0.0
 11
22.5
 21
13.7745
 31
0.0
  0
CIRCLE
  5
124F
100
AcDbEntity
  8
C-FIBER
100
AcDbCircle
 10
6.5
 20
13.0
 30
0.0
 40
0.1005
  0
LINE
  5
1250
100
AcDbEntity
  8
CENTER
100
AcDbLine
 10
6.4665
 20
13.0
 30
0.0
 11
6.5335
 21
13.0
 31
0.0
  0
LINE
  5
1251
100
AcDbEntity
  8
CENTER
100
AcDbLine
 10
6.5
 20
12.9665
 30
0.0
 11
6.5
 21
13.0335
 31
0.0
  0
LINE
  5
1252
100
AcDbEntity
  8
CENTER
100
AcDbLine
 10
6.567
 20
13.0
 30
0.0
 11
6.7255
 21
13.0
 31
0.0
  0
LINE
  5
1253
100
AcDbEntity
  8
CENTER
100
AcDbLine
 10
6.5
 20
13.067
 30
0.0
 11
6.5
 21
13.2255
 31
0.0
  0
LINE
  5
1254
100
AcDbEntity
  8
CENTER
100
AcDbLine
 10
6.433
 20
13.0
 30
0.0
 11
6.2745
 21
13.0
 31
0.0
  0
LINE
  5
1255
100
AcDbEntity
  8
CENTER
100
AcDbLine
 10
6.5
 20
12.933
 30
0.0
 11
6.5
 21
12.7745
 31
0.0
  0
CIRCLE
  5
1256
100
AcDbEntity
  8
C-FIBER
100
AcDbCircle
 10
6.5
 20
11.0
 30
0.0
 40
0.1005
  0
LINE
  5
1257
100
AcDbEntity
  8
CENTER
100
AcDbLine
 10
6.4665
 20
11.0
 30
0.0
 11
6.5335
 21
11.0
 31
0.0
  0
LINE
  5
1258
100
AcDbEntity
  8
CENTER
100
AcDbLine
 10
6.5
 20
10.9665
 30
0.0
 11
6.5
 21
11.0335
 31
0.0
  0
LINE
  5
1259
100
AcDbEntity
  8
CENTER
100
AcDbLine
 10
6.567
 20
11.0
 30
0.0
 11
6.7255
 21
11.0
 31
0.0
  0
LINE
  5
125A
100
AcDbEntity
  8
CENTER
100
AcDbLine
 10
6.5
 20
11.067
 30
0.0
 11
6.5
 21
11.2255
 31
0.0
  0
LINE
  5
125B
100
AcDbEntity
  8
CENTER
100
AcDbLine
 10
6.433
 20
11.0
 30
0.0
 11
6.2745
 21
11.0
 31
0.0
  0
LINE
  5
125C
100
AcDbEntity
  8
CENTER
100
AcDbLine
 10
6.5
 20
10.933
 30
0.0
 11
6.5
 21
10.7745
 31
0.0
  0
LINE
  5
125D
100
AcDbEntity
  8
STRAIN-R
100
AcDbLine
 10
1.25
 20
10.25
 30
0.0
 11
1.25
 21
14.125
 31
0.0
  0
LINE
  5
125E
100
AcDbEntity
  8
STRAIN-R
100
AcDbLine
 10
1.25
 20
14.125
 30
0.0
 11
1.75
 21
14.125
 31
0.0
  0
LINE
  5
125F
100
AcDbEntity
  8
STRAIN-R
100
AcDbLine
 10
1.75
 20
14.125
 30
0.0
 11
1.75
 21
10.25
 31
0.0
  0
LINE
  5
1260
100
AcDbEntity
  8
STRAIN-R
100
AcDbLine
 10
1.75
 20
10.25
 30
0.0
 11
1.25
 21
10.25
 31
0.0
  0
CIRCLE
  5
1261
100
AcDbEntity
  8
BOARD
100
AcDbCircle
 10
3.34848
 20
10.818416
 30
0.0
 40
0.055
  0
LINE
  5
1262
100
AcDbEntity
  8
CENTER
100
AcDbLine
 10
3.330147
 20
10.818416
 30
0.0
 11
3.366813
 21
10.818416
 31
0.0
  0
LINE
  5
1263
100
AcDbEntity
  8
CENTER
100
AcDbLine
 10
3.34848
 20
10.800083
 30
0.0
 11
3.34848
 21
10.83675
 31
0.0
  0
LINE
  5
1264
100
AcDbEntity
  8
CENTER
100
AcDbLine
 10
3.385147
 20
10.818416
 30
0.0
 11
3.52848
 21
10.818416
 31
0.0
  0
LINE
  5
1265
100
AcDbEntity
  8
CENTER
100
AcDbLine
 10
3.34848
 20
10.855083
 30
0.0
 11
3.34848
 21
10.998416
 31
0.0
  0
LINE
  5
1266
100
AcDbEntity
  8
CENTER
100
AcDbLine
 10
3.311813
 20
10.818416
 30
0.0
 11
3.16848
 21
10.818416
 31
0.0
  0
LINE
  5
1267
100
AcDbEntity
  8
CENTER
100
AcDbLine
 10
3.34848
 20
10.78175
 30
0.0
 11
3.34848
 21
10.638416
 31
0.0
  0
CIRCLE
  5
1268
100
AcDbEntity
  8
BOARD
100
AcDbCircle
 10
3.34848
 20
13.614416
 30
0.0
 40
0.055
  0
LINE
  5
1269
100
AcDbEntity
  8
CENTER
100
AcDbLine
 10
3.330147
 20
13.614416
 30
0.0
 11
3.366813
 21
13.614416
 31
0.0
  0
LINE
  5
126A
100
AcDbEntity
  8
CENTER
100
AcDbLine
 10
3.34848
 20
13.596083
 30
0.0
 11
3.34848
 21
13.63275
 31
0.0
  0
LINE
  5
126B
100
AcDbEntity
  8
CENTER
100
AcDbLine
 10
3.385147
 20
13.614416
 30
0.0
 11
3.52848
 21
13.614416
 31
0.0
  0
LINE
  5
126C
100
AcDbEntity
  8
CENTER
100
AcDbLine
 10
3.34848
 20
13.651083
 30
0.0
 11
3.34848
 21
13.794416
 31
0.0
  0
LINE
  5
126D
100
AcDbEntity
  8
CENTER
100
AcDbLine
 10
3.311813
 20
13.614416
 30
0.0
 11
3.16848
 21
13.614416
 31
0.0
  0
LINE
  5
126E
100
AcDbEntity
  8
CENTER
100
AcDbLine
 10
3.34848
 20
13.57775
 30
0.0
 11
3.34848
 21
13.434416
 31
0.0
  0
TEXT
  5
126F
100
AcDbEntity
  8
COOLING
100
AcDbText
 10
27.087143
 20
14.59094
 30
0.0
 40
0.18
  1
TAIL ADAPTOR PC-BOARD
100
AcDbText
  0
TEXT
  5
1270
100
AcDbEntity
  8
COOLING
100
AcDbText
 10
22.364012
 20
14.767319
 30
0.0
 40
0.18
  1
STRAIN RELIEF
100
AcDbText
  0
TEXT
  5
1271
100
AcDbEntity
  8
COOLING
100
AcDbText
 10
20.683819
 20
15.347218
 30
0.0
 40
0.18
  1
COOLING BLOCK, BRASS
100
AcDbText
  0
TEXT
  5
1272
100
AcDbEntity
  8
COOLING
100
AcDbText
 10
21.394869
 20
6.750647
 30
0.0
 40
0.18
  1
LID
100
AcDbText
  0
TEXT
  5
1273
100
AcDbEntity
  8
COOLING
100
AcDbText
 10
25.229109
 20
5.264315
 30
0.0
 40
0.18
  1
GAS IN/OUT
100
AcDbText
  0
CIRCLE
  5
1274
100
AcDbEntity
  8
LID
100
AcDbCircle
 10
27.75
 20
4.5
 30
0.0
 40
0.09375
  0
LINE
  5
1275
100
AcDbEntity
  8
CENTER
100
AcDbLine
 10
27.71875
 20
4.5
 30
0.0
 11
27.78125
 21
4.5
 31
0.0
  0
LINE
  5
1276
100
AcDbEntity
  8
CENTER
100
AcDbLine
 10
27.75
 20
4.46875
 30
0.0
 11
27.75
 21
4.53125
 31
0.0
  0
LINE
  5
1277
100
AcDbEntity
  8
CENTER
100
AcDbLine
 10
27.8125
 20
4.5
 30
0.0
 11
27.96875
 21
4.5
 31
0.0
  0
LINE
  5
1278
100
AcDbEntity
  8
CENTER
100
AcDbLine
 10
27.75
 20
4.5625
 30
0.0
 11
27.75
 21
4.71875
 31
0.0
  0
LINE
  5
1279
100
AcDbEntity
  8
CENTER
100
AcDbLine
 10
27.6875
 20
4.5
 30
0.0
 11
27.53125
 21
4.5
 31
0.0
  0
LINE
  5
127A
100
AcDbEntity
  8
CENTER
100
AcDbLine
 10
27.75
 20
4.4375
 30
0.0
 11
27.75
 21
4.28125
 31
0.0
  0
TEXT
  5
127B
100
AcDbEntity
  8
COOLING
100
AcDbText
 10
23.556018
 20
18.13941
 30
0.0
 40
0.18
  1
SPRING
100
AcDbText
  0
TEXT
  5
127C
100
AcDbEntity
  8
COOLING
100
AcDbText
 10
21.862583
 20
16.837998
 30
0.0
 40
0.18
  1
AL BASE PLATE
100
AcDbText
  0
TEXT
  5
127D
100
AcDbEntity
  8
COOLING
100
AcDbText
 10
22.255647
 20
17.443306
 30
0.0
 40
0.18
  1
TEFLON INSERT
100
AcDbText
  0
TEXT
  5
127E
100
AcDbEntity
  8
COOLING
100
AcDbText
 10
26.906348
 20
17.594633
 30
0.0
 40
0.18
  1
C-FIBER COMPOSITE PLATE
100
AcDbText
  0
LINE
  5
127F
100
AcDbEntity
  8
C-FIBER
100
AcDbLine
 10
25.151786
 20
16.870658
 30
0.0
 11
25.151786
 21
17.310658
 31
0.0
  0
LINE
  5
1280
100
AcDbEntity
  8
C-FIBER
100
AcDbLine
 10
25.151786
 20
17.310658
 30
0.0
 11
26.428992
 21
17.310658
 31
0.0
  0
LINE
  5
1281
100
AcDbEntity
  8
C-FIBER
100
AcDbLine
 10
26.492155
 20
16.870658
 30
0.0
 11
25.151786
 21
16.870658
 31
0.0
  0
LINE
  5
1282
100
AcDbEntity
  8
BASE
100
AcDbLine
 10
24.677656
 20
16.810658
 30
0.0
 11
26.422041
 21
16.810658
 31
0.0
  0
LINE
  5
1283
100
AcDbEntity
  8
TEFLON
100
AcDbLine
 10
25.151786
 20
16.870658
 30
0.0
 11
25.151786
 21
16.810658
 31
0.0
  0
LINE
  5
1284
100
AcDbEntity
  8
TEFLON
100
AcDbLine
 10
25.151786
 20
16.810658
 30
0.0
 11
26.151786
 21
16.810658
 31
0.0
  0
LINE
  5
1285
100
AcDbEntity
  8
TEFLON
100
AcDbLine
 10
26.151786
 20
16.810658
 30
0.0
 11
26.151786
 21
16.870658
 31
0.0
  0
LINE
  5
1286
100
AcDbEntity
  8
TEFLON
100
AcDbLine
 10
26.151786
 20
16.870658
 30
0.0
 11
25.151786
 21
16.870658
 31
0.0
  0
LINE
  5
1287
100
AcDbEntity
  8
HIDDEN
100
AcDbLine
 10
25.872786
 20
17.310658
 30
0.0
 11
25.872786
 21
16.810658
 31
0.0
  0
LINE
  5
1288
100
AcDbEntity
  8
HIDDEN
100
AcDbLine
 10
25.430786
 20
17.310658
 30
0.0
 11
25.430786
 21
16.810658
 31
0.0
  0
LINE
  5
1289
100
AcDbEntity
  8
CENTER
100
AcDbLine
 10
25.671786
 20
17.560658
 30
0.0
 11
25.671786
 21
16.560658
 31
0.0
  0
LINE
  5
128A
100
AcDbEntity
  8
CENTER
100
AcDbLine
 10
25.631786
 20
17.560658
 30
0.0
 11
25.631786
 21
16.560658
 31
0.0
  0
LINE
  5
128B
100
AcDbEntity
  8
HIDDEN
100
AcDbLine
 10
25.801286
 20
16.810658
 30
0.0
 11
25.801286
 21
15.870658
 31
0.0
  0
LINE
  5
128C
100
AcDbEntity
  8
HIDDEN
100
AcDbLine
 10
25.502286
 20
16.810658
 30
0.0
 11
25.502286
 21
15.870658
 31
0.0
  0
LINE
  5
128D
100
AcDbEntity
  8
HIDDEN
100
AcDbLine
 10
25.841786
 20
16.810658
 30
0.0
 11
25.841786
 21
15.870658
 31
0.0
  0
LINE
  5
128E
100
AcDbEntity
  8
HIDDEN
100
AcDbLine
 10
25.461786
 20
16.810658
 30
0.0
 11
25.461786
 21
15.870658
 31
0.0
  0
LINE
  5
128F
100
AcDbEntity
  8
CENTER
100
AcDbLine
 10
25.651786
 20
17.060658
 30
0.0
 11
25.651786
 21
15.620658
 31
0.0
  0
POLYLINE
  5
1290
100
AcDbEntity
  8
SCREW
100
AcDb2dPolyline
 66
     1
 10
0.0
 20
0.0
 30
0.0
 70
     1
  0
VERTEX
  5
1291
100
AcDbEntity
  8
SCREW
100
AcDbVertex
100
AcDb2dVertex
 10
26.151786
 20
17.310658
 30
0.0
  0
VERTEX
  5
1292
100
AcDbEntity
  8
SCREW
100
AcDbVertex
100
AcDb2dVertex
 10
26.151786
 20
17.408658
 30
0.0
  0
VERTEX
  5
1293
100
AcDbEntity
  8
SCREW
100
AcDbVertex
100
AcDb2dVertex
 10
25.151786
 20
17.408658
 30
0.0
  0
VERTEX
  5
1294
100
AcDbEntity
  8
SCREW
100
AcDbVertex
100
AcDb2dVertex
 10
25.151786
 20
17.310658
 30
0.0
  0
SEQEND
  5
1295
100
AcDbEntity
  8
SCREW
  0
LINE
  5
1296
100
AcDbEntity
  8
HIDDEN
100
AcDbLine
 10
25.870786
 20
17.408658
 30
0.0
 11
25.870786
 21
17.310658
 31
0.0
  0
LINE
  5
1297
100
AcDbEntity
  8
HIDDEN
100
AcDbLine
 10
25.432786
 20
17.408658
 30
0.0
 11
25.432786
 21
17.310658
 31
0.0
  0
LINE
  5
1298
100
AcDbEntity
  8
CENTER
100
AcDbLine
 10
25.651786
 20
17.658658
 30
0.0
 11
25.651786
 21
17.060658
 31
0.0
  0
POLYLINE
  5
1299
100
AcDbEntity
  8
SCREW
100
AcDb2dPolyline
 66
     1
 10
0.0
 20
0.0
 30
0.0
  0
VERTEX
  5
129A
100
AcDbEntity
  8
SCREW
100
AcDbVertex
100
AcDb2dVertex
 10
25.964286
 20
18.284408
 30
0.0
  0
VERTEX
  5
129B
100
AcDbEntity
  8
SCREW
100
AcDbVertex
100
AcDb2dVertex
 10
25.933036
 20
18.315658
 30
0.0
  0
VERTEX
  5
129C
100
AcDbEntity
  8
SCREW
100
AcDbVertex
100
AcDb2dVertex
 10
25.370536
 20
18.315658
 30
0.0
  0
VERTEX
  5
129D
100
AcDbEntity
  8
SCREW
100
AcDbVertex
100
AcDb2dVertex
 10
25.339286
 20
18.284408
 30
0.0
  0
VERTEX
  5
129E
100
AcDbEntity
  8
SCREW
100
AcDbVertex
100
AcDb2dVertex
 10
25.339286
 20
17.935658
 30
0.0
  0
VERTEX
  5
129F
100
AcDbEntity
  8
SCREW
100
AcDbVertex
100
AcDb2dVertex
 10
25.964286
 20
17.935658
 30
0.0
  0
VERTEX
  5
12A0
100
AcDbEntity
  8
SCREW
100
AcDbVertex
100
AcDb2dVertex
 10
25.964286
 20
18.284408
 30
0.0
  0
VERTEX
  5
12A1
100
AcDbEntity
  8
SCREW
100
AcDbVertex
100
AcDb2dVertex
 10
25.339286
 20
18.284408
 30
0.0
  0
SEQEND
  5
12A2
100
AcDbEntity
  8
SCREW
  0
POLYLINE
  5
12A3
100
AcDbEntity
  8
SCREW
100
AcDb2dPolyline
 66
     1
 10
0.0
 20
0.0
 30
0.0
  0
VERTEX
  5
12A4
100
AcDbEntity
  8
SCREW
100
AcDbVertex
100
AcDb2dVertex
 10
25.841786
 20
17.935658
 30
0.0
  0
VERTEX
  5
12A5
100
AcDbEntity
  8
SCREW
100
AcDbVertex
100
AcDb2dVertex
 10
25.841786
 20
15.985258
 30
0.0
  0
VERTEX
  5
12A6
100
AcDbEntity
  8
SCREW
100
AcDbVertex
100
AcDb2dVertex
 10
25.792186
 20
15.935658
 30
0.0
  0
VERTEX
  5
12A7
100
AcDbEntity
  8
SCREW
100
AcDbVertex
100
AcDb2dVertex
 10
25.511386
 20
15.935658
 30
0.0
  0
VERTEX
  5
12A8
100
AcDbEntity
  8
SCREW
100
AcDbVertex
100
AcDb2dVertex
 10
25.461786
 20
15.985258
 30
0.0
  0
VERTEX
  5
12A9
100
AcDbEntity
  8
SCREW
100
AcDbVertex
100
AcDb2dVertex
 10
25.461786
 20
17.935658
 30
0.0
  0
SEQEND
  5
12AA
100
AcDbEntity
  8
SCREW
  0
LINE
  5
12AB
100
AcDbEntity
  8
SCREW
100
AcDbLine
 10
25.841786
 20
15.985258
 30
0.0
 11
25.461786
 21
15.985258
 31
0.0
  0
LINE
  5
12AC
100
AcDbEntity
  8
HIDDEN
100
AcDbLine
 10
25.792186
 20
17.935658
 30
0.0
 11
25.792186
 21
15.985258
 31
0.0
  0
LINE
  5
12AD
100
AcDbEntity
  8
HIDDEN
100
AcDbLine
 10
25.511386
 20
17.935658
 30
0.0
 11
25.511386
 21
15.985258
 31
0.0
  0
LINE
  5
12AE
100
AcDbEntity
  8
CENTER
100
AcDbLine
 10
25.651786
 20
18.565658
 30
0.0
 11
25.651786
 21
15.685658
 31
0.0
  0
POLYLINE
  5
12AF
100
AcDbEntity
  8
SCREW
100
AcDb2dPolyline
 66
     1
 10
0.0
 20
0.0
 30
0.0
 70
     1
  0
VERTEX
  5
12B0
100
AcDbEntity
  8
SCREW
100
AcDbVertex
100
AcDb2dVertex
 10
26.151786
 20
17.837658
 30
0.0
  0
VERTEX
  5
12B1
100
AcDbEntity
  8
SCREW
100
AcDbVertex
100
AcDb2dVertex
 10
26.151786
 20
17.935658
 30
0.0
  0
VERTEX
  5
12B2
100
AcDbEntity
  8
SCREW
100
AcDbVertex
100
AcDb2dVertex
 10
25.151786
 20
17.935658
 30
0.0
  0
VERTEX
  5
12B3
100
AcDbEntity
  8
SCREW
100
AcDbVertex
100
AcDb2dVertex
 10
25.151786
 20
17.837658
 30
0.0
  0
SEQEND
  5
12B4
100
AcDbEntity
  8
SCREW
  0
LINE
  5
12B5
100
AcDbEntity
  8
HIDDEN
100
AcDbLine
 10
25.870786
 20
17.935658
 30
0.0
 11
25.870786
 21
17.837658
 31
0.0
  0
LINE
  5
12B6
100
AcDbEntity
  8
HIDDEN
100
AcDbLine
 10
25.432786
 20
17.935658
 30
0.0
 11
25.432786
 21
17.837658
 31
0.0
  0
LINE
  5
12B7
100
AcDbEntity
  8
CENTER
100
AcDbLine
 10
25.651786
 20
18.185658
 30
0.0
 11
25.651786
 21
17.587658
 31
0.0
  0
POLYLINE
  5
12B8
100
AcDbEntity
  8
SCREW
100
AcDb2dPolyline
 66
     1
 10
0.0
 20
0.0
 30
0.0
  0
VERTEX
  5
12B9
100
AcDbEntity
  8
SCREW
100
AcDbVertex
100
AcDb2dVertex
 10
6.65625
 20
4.236875
 30
0.0
  0
VERTEX
  5
12BA
100
AcDbEntity
  8
SCREW
100
AcDbVertex
100
AcDb2dVertex
 10
6.640625
 20
4.2525
 30
0.0
  0
VERTEX
  5
12BB
100
AcDbEntity
  8
SCREW
100
AcDbVertex
100
AcDb2dVertex
 10
6.359375
 20
4.2525
 30
0.0
  0
VERTEX
  5
12BC
100
AcDbEntity
  8
SCREW
100
AcDbVertex
100
AcDb2dVertex
 10
6.34375
 20
4.236875
 30
0.0
  0
VERTEX
  5
12BD
100
AcDbEntity
  8
SCREW
100
AcDbVertex
100
AcDb2dVertex
 10
6.34375
 20
4.0625
 30
0.0
  0
VERTEX
  5
12BE
100
AcDbEntity
  8
SCREW
100
AcDbVertex
100
AcDb2dVertex
 10
6.65625
 20
4.0625
 30
0.0
  0
VERTEX
  5
12BF
100
AcDbEntity
  8
SCREW
100
AcDbVertex
100
AcDb2dVertex
 10
6.65625
 20
4.236875
 30
0.0
  0
VERTEX
  5
12C0
100
AcDbEntity
  8
SCREW
100
AcDbVertex
100
AcDb2dVertex
 10
6.34375
 20
4.236875
 30
0.0
  0
SEQEND
  5
12C1
100
AcDbEntity
  8
SCREW
  0
POLYLINE
  5
12C2
100
AcDbEntity
  8
SCREW
100
AcDb2dPolyline
 66
     1
 10
0.0
 20
0.0
 30
0.0
  0
VERTEX
  5
12C3
100
AcDbEntity
  8
SCREW
100
AcDbVertex
100
AcDb2dVertex
 10
6.595
 20
4.0625
 30
0.0
  0
VERTEX
  5
12C4
100
AcDbEntity
  8
SCREW
100
AcDbVertex
100
AcDb2dVertex
 10
6.595
 20
3.0873
 30
0.0
  0
VERTEX
  5
12C5
100
AcDbEntity
  8
SCREW
100
AcDbVertex
100
AcDb2dVertex
 10
6.5702
 20
3.0625
 30
0.0
  0
VERTEX
  5
12C6
100
AcDbEntity
  8
SCREW
100
AcDbVertex
100
AcDb2dVertex
 10
6.4298
 20
3.0625
 30
0.0
  0
VERTEX
  5
12C7
100
AcDbEntity
  8
SCREW
100
AcDbVertex
100
AcDb2dVertex
 10
6.405
 20
3.0873
 30
0.0
  0
VERTEX
  5
12C8
100
AcDbEntity
  8
SCREW
100
AcDbVertex
100
AcDb2dVertex
 10
6.405
 20
4.0625
 30
0.0
  0
SEQEND
  5
12C9
100
AcDbEntity
  8
SCREW
  0
LINE
  5
12CA
100
AcDbEntity
  8
SCREW
100
AcDbLine
 10
6.595
 20
3.0873
 30
0.0
 11
6.405
 21
3.0873
 31
0.0
  0
LINE
  5
12CB
100
AcDbEntity
  8
HIDDEN
100
AcDbLine
 10
6.5702
 20
4.0625
 30
0.0
 11
6.5702
 21
3.0873
 31
0.0
  0
LINE
  5
12CC
100
AcDbEntity
  8
HIDDEN
100
AcDbLine
 10
6.4298
 20
4.0625
 30
0.0
 11
6.4298
 21
3.0873
 31
0.0
  0
LINE
  5
12CD
100
AcDbEntity
  8
CENTER
100
AcDbLine
 10
6.5
 20
4.3775
 30
0.0
 11
6.5
 21
2.9375
 31
0.0
  0
POLYLINE
  5
12CE
100
AcDbEntity
  8
SCREW
100
AcDb2dPolyline
 66
     1
 10
0.0
 20
0.0
 30
0.0
 70
     1
  0
VERTEX
  5
12CF
100
AcDbEntity
  8
SCREW
100
AcDbVertex
100
AcDb2dVertex
 10
6.75
 20
4.0135
 30
0.0
  0
VERTEX
  5
12D0
100
AcDbEntity
  8
SCREW
100
AcDbVertex
100
AcDb2dVertex
 10
6.75
 20
4.0625
 30
0.0
  0
VERTEX
  5
12D1
100
AcDbEntity
  8
SCREW
100
AcDbVertex
100
AcDb2dVertex
 10
6.25
 20
4.0625
 30
0.0
  0
VERTEX
  5
12D2
100
AcDbEntity
  8
SCREW
100
AcDbVertex
100
AcDb2dVertex
 10
6.25
 20
4.0135
 30
0.0
  0
SEQEND
  5
12D3
100
AcDbEntity
  8
SCREW
  0
LINE
  5
12D4
100
AcDbEntity
  8
HIDDEN
100
AcDbLine
 10
6.6095
 20
4.0625
 30
0.0
 11
6.6095
 21
4.0135
 31
0.0
  0
LINE
  5
12D5
100
AcDbEntity
  8
HIDDEN
100
AcDbLine
 10
6.3905
 20
4.0625
 30
0.0
 11
6.3905
 21
4.0135
 31
0.0
  0
LINE
  5
12D6
100
AcDbEntity
  8
CENTER
100
AcDbLine
 10
6.5
 20
4.1875
 30
0.0
 11
6.5
 21
3.8885
 31
0.0
  0
POLYLINE
  5
12D7
100
AcDbEntity
  8
SCREW
100
AcDb2dPolyline
 66
     1
 10
0.0
 20
0.0
 30
0.0
 70
     1
  0
VERTEX
  5
12D8
100
AcDbEntity
  8
SCREW
100
AcDbVertex
100
AcDb2dVertex
 10
6.75
 20
3.75
 30
0.0
  0
VERTEX
  5
12D9
100
AcDbEntity
  8
SCREW
100
AcDbVertex
100
AcDb2dVertex
 10
6.75
 20
3.799
 30
0.0
  0
VERTEX
  5
12DA
100
AcDbEntity
  8
SCREW
100
AcDbVertex
100
AcDb2dVertex
 10
6.25
 20
3.799
 30
0.0
  0
VERTEX
  5
12DB
100
AcDbEntity
  8
SCREW
100
AcDbVertex
100
AcDb2dVertex
 10
6.25
 20
3.75
 30
0.0
  0
SEQEND
  5
12DC
100
AcDbEntity
  8
SCREW
  0
LINE
  5
12DD
100
AcDbEntity
  8
HIDDEN
100
AcDbLine
 10
6.6095
 20
3.799
 30
0.0
 11
6.6095
 21
3.75
 31
0.0
  0
LINE
  5
12DE
100
AcDbEntity
  8
HIDDEN
100
AcDbLine
 10
6.3905
 20
3.799
 30
0.0
 11
6.3905
 21
3.75
 31
0.0
  0
LINE
  5
12DF
100
AcDbEntity
  8
CENTER
100
AcDbLine
 10
6.5
 20
3.924
 30
0.0
 11
6.5
 21
3.625
 31
0.0
  0
LINE
  5
12E0
100
AcDbEntity
  8
HIDDEN
100
AcDbLine
 10
6.57475
 20
3.5
 30
0.0
 11
6.57475
 21
3.03
 31
0.0
  0
LINE
  5
12E1
100
AcDbEntity
  8
HIDDEN
100
AcDbLine
 10
6.42525
 20
3.5
 30
0.0
 11
6.42525
 21
3.03
 31
0.0
  0
LINE
  5
12E2
100
AcDbEntity
  8
HIDDEN
100
AcDbLine
 10
6.595
 20
3.5
 30
0.0
 11
6.595
 21
3.03
 31
0.0
  0
LINE
  5
12E3
100
AcDbEntity
  8
HIDDEN
100
AcDbLine
 10
6.405
 20
3.5
 30
0.0
 11
6.405
 21
3.03
 31
0.0
  0
LINE
  5
12E4
100
AcDbEntity
  8
CENTER
100
AcDbLine
 10
6.5
 20
3.625
 30
0.0
 11
6.5
 21
2.905
 31
0.0
  0
LINE
  5
12E5
100
AcDbEntity
  8
HIDDEN
100
AcDbLine
 10
6.6105
 20
3.75
 30
0.0
 11
6.6105
 21
3.5
 31
0.0
  0
LINE
  5
12E6
100
AcDbEntity
  8
HIDDEN
100
AcDbLine
 10
6.3895
 20
3.75
 30
0.0
 11
6.3895
 21
3.5
 31
0.0
  0
LINE
  5
12E7
100
AcDbEntity
  8
CENTER
100
AcDbLine
 10
6.51
 20
3.875
 30
0.0
 11
6.51
 21
3.375
 31
0.0
  0
LINE
  5
12E8
100
AcDbEntity
  8
CENTER
100
AcDbLine
 10
6.49
 20
3.875
 30
0.0
 11
6.49
 21
3.375
 31
0.0
  0
TEXT
  5
12E9
100
AcDbEntity
  8
COOLING
100
AcDbText
 10
2.780239
 20
5.681591
 30
0.0
 40
0.18
  1
SEE DETAIL
100
AcDbText
  0
POLYLINE
  5
12EA
100
AcDbEntity
  8
C-FIBER
100
AcDb2dPolyline
 66
     1
 10
0.0
 20
0.0
 30
0.0
 70
     1
  0
VERTEX
  5
12EB
100
AcDbEntity
  8
C-FIBER
100
AcDbVertex
100
AcDb2dVertex
 10
6.49
 20
10.6005
 30
0.0
 42
1.0
  0
VERTEX
  5
12EC
100
AcDbEntity
  8
C-FIBER
100
AcDbVertex
100
AcDb2dVertex
 10
6.49
 20
10.3995
 30
0.0
  0
VERTEX
  5
12ED
100
AcDbEntity
  8
C-FIBER
100
AcDbVertex
100
AcDb2dVertex
 10
6.51
 20
10.3995
 30
0.0
 42
1.0
  0
VERTEX
  5
12EE
100
AcDbEntity
  8
C-FIBER
100
AcDbVertex
100
AcDb2dVertex
 10
6.51
 20
10.6005
 30
0.0
  0
SEQEND
  5
12EF
100
AcDbEntity
  8
C-FIBER
  0
LINE
  5
12F0
100
AcDbEntity
  8
CENTER
100
AcDbLine
 10
6.4565
 20
10.5
 30
0.0
 11
6.5235
 21
10.5
 31
0.0
  0
LINE
  5
12F1
100
AcDbEntity
  8
CENTER
100
AcDbLine
 10
6.49
 20
10.4665
 30
0.0
 11
6.49
 21
10.5335
 31
0.0
  0
LINE
  5
12F2
100
AcDbEntity
  8
CENTER
100
AcDbLine
 10
6.557
 20
10.5
 30
0.0
 11
6.7155
 21
10.5
 31
0.0
  0
LINE
  5
12F3
100
AcDbEntity
  8
CENTER
100
AcDbLine
 10
6.49
 20
10.567
 30
0.0
 11
6.49
 21
10.7255
 31
0.0
  0
LINE
  5
12F4
100
AcDbEntity
  8
CENTER
100
AcDbLine
 10
6.423
 20
10.5
 30
0.0
 11
6.2645
 21
10.5
 31
0.0
  0
LINE
  5
12F5
100
AcDbEntity
  8
CENTER
100
AcDbLine
 10
6.49
 20
10.433
 30
0.0
 11
6.49
 21
10.2745
 31
0.0
  0
LINE
  5
12F6
100
AcDbEntity
  8
CENTER
100
AcDbLine
 10
6.4765
 20
10.5
 30
0.0
 11
6.5435
 21
10.5
 31
0.0
  0
LINE
  5
12F7
100
AcDbEntity
  8
CENTER
100
AcDbLine
 10
6.51
 20
10.4665
 30
0.0
 11
6.51
 21
10.5335
 31
0.0
  0
LINE
  5
12F8
100
AcDbEntity
  8
CENTER
100
AcDbLine
 10
6.577
 20
10.5
 30
0.0
 11
6.7355
 21
10.5
 31
0.0
  0
LINE
  5
12F9
100
AcDbEntity
  8
CENTER
100
AcDbLine
 10
6.51
 20
10.567
 30
0.0
 11
6.51
 21
10.7255
 31
0.0
  0
LINE
  5
12FA
100
AcDbEntity
  8
CENTER
100
AcDbLine
 10
6.443
 20
10.5
 30
0.0
 11
6.2845
 21
10.5
 31
0.0
  0
LINE
  5
12FB
100
AcDbEntity
  8
CENTER
100
AcDbLine
 10
6.51
 20
10.433
 30
0.0
 11
6.51
 21
10.2745
 31
0.0
  0
POLYLINE
  5
12FC
100
AcDbEntity
  8
C-FIBER
100
AcDb2dPolyline
 66
     1
 10
0.0
 20
0.0
 30
0.0
 70
     1
  0
VERTEX
  5
12FD
100
AcDbEntity
  8
C-FIBER
100
AcDbVertex
100
AcDb2dVertex
 10
6.49
 20
14.1005
 30
0.0
 42
1.0
  0
VERTEX
  5
12FE
100
AcDbEntity
  8
C-FIBER
100
AcDbVertex
100
AcDb2dVertex
 10
6.49
 20
13.8995
 30
0.0
  0
VERTEX
  5
12FF
100
AcDbEntity
  8
C-FIBER
100
AcDbVertex
100
AcDb2dVertex
 10
6.51
 20
13.8995
 30
0.0
 42
1.0
  0
VERTEX
  5
1300
100
AcDbEntity
  8
C-FIBER
100
AcDbVertex
100
AcDb2dVertex
 10
6.51
 20
14.1005
 30
0.0
  0
SEQEND
  5
1301
100
AcDbEntity
  8
C-FIBER
  0
LINE
  5
1302
100
AcDbEntity
  8
CENTER
100
AcDbLine
 10
6.4565
 20
14.0
 30
0.0
 11
6.5235
 21
14.0
 31
0.0
  0
LINE
  5
1303
100
AcDbEntity
  8
CENTER
100
AcDbLine
 10
6.49
 20
13.9665
 30
0.0
 11
6.49
 21
14.0335
 31
0.0
  0
LINE
  5
1304
100
AcDbEntity
  8
CENTER
100
AcDbLine
 10
6.557
 20
14.0
 30
0.0
 11
6.7155
 21
14.0
 31
0.0
  0
LINE
  5
1305
100
AcDbEntity
  8
CENTER
100
AcDbLine
 10
6.49
 20
14.067
 30
0.0
 11
6.49
 21
14.2255
 31
0.0
  0
LINE
  5
1306
100
AcDbEntity
  8
CENTER
100
AcDbLine
 10
6.423
 20
14.0
 30
0.0
 11
6.2645
 21
14.0
 31
0.0
  0
LINE
  5
1307
100
AcDbEntity
  8
CENTER
100
AcDbLine
 10
6.49
 20
13.933
 30
0.0
 11
6.49
 21
13.7745
 31
0.0
  0
LINE
  5
1308
100
AcDbEntity
  8
CENTER
100
AcDbLine
 10
6.4765
 20
14.0
 30
0.0
 11
6.5435
 21
14.0
 31
0.0
  0
LINE
  5
1309
100
AcDbEntity
  8
CENTER
100
AcDbLine
 10
6.51
 20
13.9665
 30
0.0
 11
6.51
 21
14.0335
 31
0.0
  0
LINE
  5
130A
100
AcDbEntity
  8
CENTER
100
AcDbLine
 10
6.577
 20
14.0
 30
0.0
 11
6.7355
 21
14.0
 31
0.0
  0
LINE
  5
130B
100
AcDbEntity
  8
CENTER
100
AcDbLine
 10
6.51
 20
14.067
 30
0.0
 11
6.51
 21
14.2255
 31
0.0
  0
LINE
  5
130C
100
AcDbEntity
  8
CENTER
100
AcDbLine
 10
6.443
 20
14.0
 30
0.0
 11
6.2845
 21
14.0
 31
0.0
  0
LINE
  5
130D
100
AcDbEntity
  8
CENTER
100
AcDbLine
 10
6.51
 20
13.933
 30
0.0
 11
6.51
 21
13.7745
 31
0.0
  0
CIRCLE
  5
130E
100
AcDbEntity
  8
STRAIN-R
100
AcDbCircle
 10
3.9375
 20
11.497416
 30
0.0
 40
0.0445
  0
CIRCLE
  5
130F
100
AcDbEntity
  8
HIDDEN
100
AcDbCircle
 10
3.9375
 20
11.497416
 30
0.0
 40
0.056
  0
LINE
  5
1310
100
AcDbEntity
  8
CENTER
100
AcDbLine
 10
3.922667
 20
11.497416
 30
0.0
 11
3.952333
 21
11.497416
 31
0.0
  0
LINE
  5
1311
100
AcDbEntity
  8
CENTER
100
AcDbLine
 10
3.9375
 20
11.482583
 30
0.0
 11
3.9375
 21
11.51225
 31
0.0
  0
LINE
  5
1312
100
AcDbEntity
  8
CENTER
100
AcDbLine
 10
3.967167
 20
11.497416
 30
0.0
 11
4.107
 21
11.497416
 31
0.0
  0
LINE
  5
1313
100
AcDbEntity
  8
CENTER
100
AcDbLine
 10
3.9375
 20
11.527083
 30
0.0
 11
3.9375
 21
11.666916
 31
0.0
  0
LINE
  5
1314
100
AcDbEntity
  8
CENTER
100
AcDbLine
 10
3.907833
 20
11.497416
 30
0.0
 11
3.768
 21
11.497416
 31
0.0
  0
LINE
  5
1315
100
AcDbEntity
  8
CENTER
100
AcDbLine
 10
3.9375
 20
11.46775
 30
0.0
 11
3.9375
 21
11.327916
 31
0.0
  0
CIRCLE
  5
1316
100
AcDbEntity
  8
STRAIN-R
100
AcDbCircle
 10
3.9375
 20
12.935416
 30
0.0
 40
0.0445
  0
CIRCLE
  5
1317
100
AcDbEntity
  8
HIDDEN
100
AcDbCircle
 10
3.9375
 20
12.935416
 30
0.0
 40
0.056
  0
LINE
  5
1318
100
AcDbEntity
  8
CENTER
100
AcDbLine
 10
3.922667
 20
12.935416
 30
0.0
 11
3.952333
 21
12.935416
 31
0.0
  0
LINE
  5
1319
100
AcDbEntity
  8
CENTER
100
AcDbLine
 10
3.9375
 20
12.920583
 30
0.0
 11
3.9375
 21
12.95025
 31
0.0
  0
LINE
  5
131A
100
AcDbEntity
  8
CENTER
100
AcDbLine
 10
3.967167
 20
12.935416
 30
0.0
 11
4.107
 21
12.935416
 31
0.0
  0
LINE
  5
131B
100
AcDbEntity
  8
CENTER
100
AcDbLine
 10
3.9375
 20
12.965083
 30
0.0
 11
3.9375
 21
13.104916
 31
0.0
  0
LINE
  5
131C
100
AcDbEntity
  8
CENTER
100
AcDbLine
 10
3.907833
 20
12.935416
 30
0.0
 11
3.768
 21
12.935416
 31
0.0
  0
LINE
  5
131D
100
AcDbEntity
  8
CENTER
100
AcDbLine
 10
3.9375
 20
12.90575
 30
0.0
 11
3.9375
 21
12.765916
 31
0.0
  0
LINE
  5
131E
100
AcDbEntity
  8
STRAIN-R
100
AcDbLine
 10
3.6875
 20
10.875
 30
0.0
 11
3.6875
 21
13.5
 31
0.0
  0
LINE
  5
131F
100
AcDbEntity
  8
STRAIN-R
100
AcDbLine
 10
3.6875
 20
13.5
 30
0.0
 11
4.1875
 21
13.5
 31
0.0
  0
LINE
  5
1320
100
AcDbEntity
  8
STRAIN-R
100
AcDbLine
 10
4.1875
 20
13.5
 30
0.0
 11
4.1875
 21
10.875
 31
0.0
  0
LINE
  5
1321
100
AcDbEntity
  8
STRAIN-R
100
AcDbLine
 10
4.1875
 20
10.875
 30
0.0
 11
3.6875
 21
10.875
 31
0.0
  0
CIRCLE
  5
1322
100
AcDbEntity
  8
STRAIN-R
100
AcDbCircle
 10
24.6875
 20
11.497416
 30
0.0
 40
0.0445
  0
CIRCLE
  5
1323
100
AcDbEntity
  8
HIDDEN
100
AcDbCircle
 10
24.6875
 20
11.497416
 30
0.0
 40
0.056
  0
LINE
  5
1324
100
AcDbEntity
  8
CENTER
100
AcDbLine
 10
24.672667
 20
11.497416
 30
0.0
 11
24.702333
 21
11.497416
 31
0.0
  0
LINE
  5
1325
100
AcDbEntity
  8
CENTER
100
AcDbLine
 10
24.6875
 20
11.482583
 30
0.0
 11
24.6875
 21
11.51225
 31
0.0
  0
LINE
  5
1326
100
AcDbEntity
  8
CENTER
100
AcDbLine
 10
24.717167
 20
11.497416
 30
0.0
 11
24.857
 21
11.497416
 31
0.0
  0
LINE
  5
1327
100
AcDbEntity
  8
CENTER
100
AcDbLine
 10
24.6875
 20
11.527083
 30
0.0
 11
24.6875
 21
11.666916
 31
0.0
  0
LINE
  5
1328
100
AcDbEntity
  8
CENTER
100
AcDbLine
 10
24.657833
 20
11.497416
 30
0.0
 11
24.518
 21
11.497416
 31
0.0
  0
LINE
  5
1329
100
AcDbEntity
  8
CENTER
100
AcDbLine
 10
24.6875
 20
11.46775
 30
0.0
 11
24.6875
 21
11.327916
 31
0.0
  0
CIRCLE
  5
132A
100
AcDbEntity
  8
STRAIN-R
100
AcDbCircle
 10
24.6875
 20
12.935416
 30
0.0
 40
0.0445
  0
CIRCLE
  5
132B
100
AcDbEntity
  8
HIDDEN
100
AcDbCircle
 10
24.6875
 20
12.935416
 30
0.0
 40
0.056
  0
LINE
  5
132C
100
AcDbEntity
  8
CENTER
100
AcDbLine
 10
24.672667
 20
12.935416
 30
0.0
 11
24.702333
 21
12.935416
 31
0.0
  0
LINE
  5
132D
100
AcDbEntity
  8
CENTER
100
AcDbLine
 10
24.6875
 20
12.920583
 30
0.0
 11
24.6875
 21
12.95025
 31
0.0
  0
LINE
  5
132E
100
AcDbEntity
  8
CENTER
100
AcDbLine
 10
24.717167
 20
12.935416
 30
0.0
 11
24.857
 21
12.935416
 31
0.0
  0
LINE
  5
132F
100
AcDbEntity
  8
CENTER
100
AcDbLine
 10
24.6875
 20
12.965083
 30
0.0
 11
24.6875
 21
13.104916
 31
0.0
  0
LINE
  5
1330
100
AcDbEntity
  8
CENTER
100
AcDbLine
 10
24.657833
 20
12.935416
 30
0.0
 11
24.518
 21
12.935416
 31
0.0
  0
LINE
  5
1331
100
AcDbEntity
  8
CENTER
100
AcDbLine
 10
24.6875
 20
12.90575
 30
0.0
 11
24.6875
 21
12.765916
 31
0.0
  0
LINE
  5
1332
100
AcDbEntity
  8
STRAIN-R
100
AcDbLine
 10
24.4375
 20
10.875
 30
0.0
 11
24.4375
 21
13.5
 31
0.0
  0
LINE
  5
1333
100
AcDbEntity
  8
STRAIN-R
100
AcDbLine
 10
24.4375
 20
13.5
 30
0.0
 11
24.9375
 21
13.5
 31
0.0
  0
LINE
  5
1334
100
AcDbEntity
  8
STRAIN-R
100
AcDbLine
 10
24.9375
 20
13.5
 30
0.0
 11
24.9375
 21
10.875
 31
0.0
  0
LINE
  5
1335
100
AcDbEntity
  8
STRAIN-R
100
AcDbLine
 10
24.9375
 20
10.875
 30
0.0
 11
24.4375
 21
10.875
 31
0.0
  0
CIRCLE
  5
1336
100
AcDbEntity
  8
BOARD
100
AcDbCircle
 10
25.16552
 20
10.818416
 30
0.0
 40
0.055
  0
LINE
  5
1337
100
AcDbEntity
  8
CENTER
100
AcDbLine
 10
25.147187
 20
10.818416
 30
0.0
 11
25.183853
 21
10.818416
 31
0.0
  0
LINE
  5
1338
100
AcDbEntity
  8
CENTER
100
AcDbLine
 10
25.16552
 20
10.800083
 30
0.0
 11
25.16552
 21
10.83675
 31
0.0
  0
LINE
  5
1339
100
AcDbEntity
  8
CENTER
100
AcDbLine
 10
25.202187
 20
10.818416
 30
0.0
 11
25.34552
 21
10.818416
 31
0.0
  0
LINE
  5
133A
100
AcDbEntity
  8
CENTER
100
AcDbLine
 10
25.16552
 20
10.855083
 30
0.0
 11
25.16552
 21
10.998416
 31
0.0
  0
LINE
  5
133B
100
AcDbEntity
  8
CENTER
100
AcDbLine
 10
25.128853
 20
10.818416
 30
0.0
 11
24.98552
 21
10.818416
 31
0.0
  0
LINE
  5
133C
100
AcDbEntity
  8
CENTER
100
AcDbLine
 10
25.16552
 20
10.78175
 30
0.0
 11
25.16552
 21
10.638416
 31
0.0
  0
CIRCLE
  5
133D
100
AcDbEntity
  8
BOARD
100
AcDbCircle
 10
25.16552
 20
13.614416
 30
0.0
 40
0.055
  0
LINE
  5
133E
100
AcDbEntity
  8
CENTER
100
AcDbLine
 10
25.147187
 20
13.614416
 30
0.0
 11
25.183853
 21
13.614416
 31
0.0
  0
LINE
  5
133F
100
AcDbEntity
  8
CENTER
100
AcDbLine
 10
25.16552
 20
13.596083
 30
0.0
 11
25.16552
 21
13.63275
 31
0.0
  0
LINE
  5
1340
100
AcDbEntity
  8
CENTER
100
AcDbLine
 10
25.202187
 20
13.614416
 30
0.0
 11
25.34552
 21
13.614416
 31
0.0
  0
LINE
  5
1341
100
AcDbEntity
  8
CENTER
100
AcDbLine
 10
25.16552
 20
13.651083
 30
0.0
 11
25.16552
 21
13.794416
 31
0.0
  0
LINE
  5
1342
100
AcDbEntity
  8
CENTER
100
AcDbLine
 10
25.128853
 20
13.614416
 30
0.0
 11
24.98552
 21
13.614416
 31
0.0
  0
LINE
  5
1343
100
AcDbEntity
  8
CENTER
100
AcDbLine
 10
25.16552
 20
13.57775
 30
0.0
 11
25.16552
 21
13.434416
 31
0.0
  0
CIRCLE
  5
1344
100
AcDbEntity
  8
BOARD
100
AcDbCircle
 10
3.49948
 20
13.614416
 30
0.0
 40
0.055
  0
LINE
  5
1345
100
AcDbEntity
  8
CENTER
100
AcDbLine
 10
3.481147
 20
13.614416
 30
0.0
 11
3.517813
 21
13.614416
 31
0.0
  0
LINE
  5
1346
100
AcDbEntity
  8
CENTER
100
AcDbLine
 10
3.49948
 20
13.596083
 30
0.0
 11
3.49948
 21
13.63275
 31
0.0
  0
LINE
  5
1347
100
AcDbEntity
  8
CENTER
100
AcDbLine
 10
3.536147
 20
13.614416
 30
0.0
 11
3.67948
 21
13.614416
 31
0.0
  0
LINE
  5
1348
100
AcDbEntity
  8
CENTER
100
AcDbLine
 10
3.49948
 20
13.651083
 30
0.0
 11
3.49948
 21
13.794416
 31
0.0
  0
LINE
  5
1349
100
AcDbEntity
  8
CENTER
100
AcDbLine
 10
3.462813
 20
13.614416
 30
0.0
 11
3.31948
 21
13.614416
 31
0.0
  0
LINE
  5
134A
100
AcDbEntity
  8
CENTER
100
AcDbLine
 10
3.49948
 20
13.57775
 30
0.0
 11
3.49948
 21
13.434416
 31
0.0
  0
CIRCLE
  5
134B
100
AcDbEntity
  8
BOARD
100
AcDbCircle
 10
3.49948
 20
10.818416
 30
0.0
 40
0.055
  0
LINE
  5
134C
100
AcDbEntity
  8
CENTER
100
AcDbLine
 10
3.481147
 20
10.818416
 30
0.0
 11
3.517813
 21
10.818416
 31
0.0
  0
LINE
  5
134D
100
AcDbEntity
  8
CENTER
100
AcDbLine
 10
3.49948
 20
10.800083
 30
0.0
 11
3.49948
 21
10.83675
 31
0.0
  0
LINE
  5
134E
100
AcDbEntity
  8
CENTER
100
AcDbLine
 10
3.536147
 20
10.818416
 30
0.0
 11
3.67948
 21
10.818416
 31
0.0
  0
LINE
  5
134F
100
AcDbEntity
  8
CENTER
100
AcDbLine
 10
3.49948
 20
10.855083
 30
0.0
 11
3.49948
 21
10.998416
 31
0.0
  0
LINE
  5
1350
100
AcDbEntity
  8
CENTER
100
AcDbLine
 10
3.462813
 20
10.818416
 30
0.0
 11
3.31948
 21
10.818416
 31
0.0
  0
LINE
  5
1351
100
AcDbEntity
  8
CENTER
100
AcDbLine
 10
3.49948
 20
10.78175
 30
0.0
 11
3.49948
 21
10.638416
 31
0.0
  0
LINE
  5
1352
100
AcDbEntity
  8
LID
100
AcDbLine
 10
19.125
 20
3.125
 30
0.0
 11
14.32475
 21
3.125
 31
0.0
  0
LINE
  5
1353
100
AcDbEntity
  8
LID
100
AcDbLine
 10
20.92525
 20
3.125
 30
0.0
 11
19.375
 21
3.125
 31
0.0
  0
LINE
  5
1354
100
AcDbEntity
  8
LID
100
AcDbLine
 10
9.125
 20
3.125
 30
0.0
 11
7.57475
 21
3.125
 31
0.0
  0
LINE
  5
1355
100
AcDbEntity
  8
LID
100
AcDbLine
 10
14.17525
 20
3.125
 30
0.0
 11
9.375
 21
3.125
 31
0.0
  0
LINE
  5
1356
100
AcDbEntity
  8
FLEX
100
AcDbLine
 10
28.68505
 20
4.442895
 30
0.0
 11
28.68505
 21
4.450895
 31
0.0
  0
LINE
  5
1357
100
AcDbEntity
  8
FLEX
100
AcDbLine
 10
28.68505
 20
4.450895
 30
0.0
 11
29.49765
 21
4.450895
 31
0.0
  0
LINE
  5
1358
100
AcDbEntity
  8
FLEX
100
AcDbLine
 10
29.49765
 20
4.450895
 30
0.0
 11
29.49765
 21
4.442895
 31
0.0
  0
LINE
  5
1359
100
AcDbEntity
  8
FLEX
100
AcDbLine
 10
29.49765
 20
4.442895
 30
0.0
 11
28.68505
 21
4.442895
 31
0.0
  0
LINE
  5
135A
100
AcDbEntity
  8
FLEX
100
AcDbLine
 10
28.68505
 20
4.450895
 30
0.0
 11
28.68505
 21
4.458895
 31
0.0
  0
LINE
  5
135B
100
AcDbEntity
  8
FLEX
100
AcDbLine
 10
28.68505
 20
4.458895
 30
0.0
 11
29.49765
 21
4.458895
 31
0.0
  0
LINE
  5
135C
100
AcDbEntity
  8
FLEX
100
AcDbLine
 10
29.49765
 20
4.458895
 30
0.0
 11
29.49765
 21
4.450895
 31
0.0
  0
LINE
  5
135D
100
AcDbEntity
  8
FLEX
100
AcDbLine
 10
29.49765
 20
4.450895
 30
0.0
 11
28.68505
 21
4.450895
 31
0.0
  0
LINE
  5
135E
100
AcDbEntity
  8
FLEX
100
AcDbLine
 10
28.68505
 20
4.468895
 30
0.0
 11
28.68505
 21
4.476895
 31
0.0
  0
LINE
  5
135F
100
AcDbEntity
  8
FLEX
100
AcDbLine
 10
28.68505
 20
4.476895
 30
0.0
 11
29.49765
 21
4.476895
 31
0.0
  0
LINE
  5
1360
100
AcDbEntity
  8
FLEX
100
AcDbLine
 10
29.49765
 20
4.476895
 30
0.0
 11
29.49765
 21
4.468895
 31
0.0
  0
LINE
  5
1361
100
AcDbEntity
  8
FLEX
100
AcDbLine
 10
29.49765
 20
4.468895
 30
0.0
 11
28.68505
 21
4.468895
 31
0.0
  0
LINE
  5
1362
100
AcDbEntity
  8
FLEX
100
AcDbLine
 10
28.68505
 20
4.476895
 30
0.0
 11
28.68505
 21
4.484895
 31
0.0
  0
LINE
  5
1363
100
AcDbEntity
  8
FLEX
100
AcDbLine
 10
28.68505
 20
4.484895
 30
0.0
 11
29.49765
 21
4.484895
 31
0.0
  0
LINE
  5
1364
100
AcDbEntity
  8
FLEX
100
AcDbLine
 10
29.49765
 20
4.484895
 30
0.0
 11
29.49765
 21
4.476895
 31
0.0
  0
LINE
  5
1365
100
AcDbEntity
  8
FLEX
100
AcDbLine
 10
29.49765
 20
4.476895
 30
0.0
 11
28.68505
 21
4.476895
 31
0.0
  0
LINE
  5
1366
100
AcDbEntity
  8
STRAIN-R
100
AcDbLine
 10
28.25
 20
4.484895
 30
0.0
 11
28.25
 21
4.609895
 31
0.0
  0
LINE
  5
1367
100
AcDbEntity
  8
STRAIN-R
100
AcDbLine
 10
28.25
 20
4.609895
 30
0.0
 11
29.875
 21
4.609895
 31
0.0
  0
LINE
  5
1368
100
AcDbEntity
  8
STRAIN-R
100
AcDbLine
 10
29.875
 20
4.609895
 30
0.0
 11
29.875
 21
4.484895
 31
0.0
  0
LINE
  5
1369
100
AcDbEntity
  8
STRAIN-R
100
AcDbLine
 10
29.875
 20
4.484895
 30
0.0
 11
28.25
 21
4.484895
 31
0.0
  0
LINE
  5
136A
100
AcDbEntity
  8
STRAIN-R
100
AcDbLine
 10
28.25
 20
3.75
 30
0.0
 11
28.25
 21
4.442895
 31
0.0
  0
LINE
  5
136B
100
AcDbEntity
  8
STRAIN-R
100
AcDbLine
 10
28.25
 20
4.442895
 30
0.0
 11
29.875
 21
4.442895
 31
0.0
  0
LINE
  5
136C
100
AcDbEntity
  8
STRAIN-R
100
AcDbLine
 10
29.875
 20
4.442895
 30
0.0
 11
29.875
 21
3.75
 31
0.0
  0
LINE
  5
136D
100
AcDbEntity
  8
STRAIN-R
100
AcDbLine
 10
29.875
 20
3.75
 30
0.0
 11
28.25
 21
3.75
 31
0.0
  0
LINE
  5
136E
100
AcDbEntity
  8
TEFLON
100
AcDbLine
 10
27.625
 20
3.5
 30
0.0
 11
27.625
 21
3.53
 31
0.0
  0
LINE
  5
136F
100
AcDbEntity
  8
TEFLON
100
AcDbLine
 10
27.625
 20
3.53
 30
0.0
 11
30.25
 21
3.53
 31
0.0
  0
LINE
  5
1370
100
AcDbEntity
  8
TEFLON
100
AcDbLine
 10
30.25
 20
3.53
 30
0.0
 11
30.25
 21
3.5
 31
0.0
  0
LINE
  5
1371
100
AcDbEntity
  8
TEFLON
100
AcDbLine
 10
30.25
 20
3.5
 30
0.0
 11
27.625
 21
3.5
 31
0.0
  0
LINE
  5
1372
100
AcDbEntity
  8
C-FIBER
100
AcDbLine
 10
27.125
 20
3.75
 30
0.0
 11
27.125
 21
3.53
 31
0.0
  0
LINE
  5
1373
100
AcDbEntity
  8
C-FIBER
100
AcDbLine
 10
27.125
 20
3.53
 30
0.0
 11
31.125
 21
3.53
 31
0.0
  0
LINE
  5
1374
100
AcDbEntity
  8
C-FIBER
100
AcDbLine
 10
31.125
 20
3.53
 30
0.0
 11
31.125
 21
3.75
 31
0.0
  0
LINE
  5
1375
100
AcDbEntity
  8
C-FIBER
100
AcDbLine
 10
31.125
 20
3.75
 30
0.0
 11
27.125
 21
3.75
 31
0.0
  0
LINE
  5
1376
100
AcDbEntity
  8
BASE
100
AcDbLine
 10
27.125
 20
3.0
 30
0.0
 11
27.125
 21
3.5
 31
0.0
  0
LINE
  5
1377
100
AcDbEntity
  8
BASE
100
AcDbLine
 10
27.125
 20
3.5
 30
0.0
 11
31.125
 21
3.5
 31
0.0
  0
LINE
  5
1378
100
AcDbEntity
  8
BASE
100
AcDbLine
 10
31.125
 20
3.5
 30
0.0
 11
31.125
 21
3.0
 31
0.0
  0
LINE
  5
1379
100
AcDbEntity
  8
BASE
100
AcDbLine
 10
31.125
 20
3.0
 30
0.0
 11
27.125
 21
3.0
 31
0.0
  0
LINE
  5
137A
100
AcDbEntity
  8
BOARD
100
AcDbLine
 10
3.199
 20
4.048891
 30
0.0
 11
3.199
 21
4.398891
 31
0.0
  0
LINE
  5
137B
100
AcDbEntity
  8
BOARD
100
AcDbLine
 10
3.199
 20
4.398891
 30
0.0
 11
2.449
 21
4.398891
 31
0.0
  0
LINE
  5
137C
100
AcDbEntity
  8
BOARD
100
AcDbLine
 10
2.449
 20
4.398891
 30
0.0
 11
2.449
 21
4.048891
 31
0.0
  0
LINE
  5
137D
100
AcDbEntity
  8
BOARD
100
AcDbLine
 10
2.449
 20
4.048891
 30
0.0
 11
3.199
 21
4.048891
 31
0.0
  0
LINE
  5
137E
100
AcDbEntity
  8
BOARD
100
AcDbLine
 10
3.199
 20
4.548891
 30
0.0
 11
3.199
 21
4.898891
 31
0.0
  0
LINE
  5
137F
100
AcDbEntity
  8
BOARD
100
AcDbLine
 10
3.199
 20
4.898891
 30
0.0
 11
2.449
 21
4.898891
 31
0.0
  0
LINE
  5
1380
100
AcDbEntity
  8
BOARD
100
AcDbLine
 10
2.449
 20
4.898891
 30
0.0
 11
2.449
 21
4.548891
 31
0.0
  0
LINE
  5
1381
100
AcDbEntity
  8
BOARD
100
AcDbLine
 10
2.449
 20
4.548891
 30
0.0
 11
3.199
 21
4.548891
 31
0.0
  0
LINE
  5
1382
100
AcDbEntity
  8
BOARD
100
AcDbLine
 10
2.824
 20
4.692916
 30
0.0
 11
2.824
 21
4.754866
 31
0.0
  0
LINE
  5
1383
100
AcDbEntity
  8
BOARD
100
AcDbLine
 10
2.824
 20
4.754866
 30
0.0
 11
4.563
 21
4.754866
 31
0.0
  0
LINE
  5
1384
100
AcDbEntity
  8
BOARD
100
AcDbLine
 10
4.563
 20
4.754866
 30
0.0
 11
4.563
 21
4.692916
 31
0.0
  0
LINE
  5
1385
100
AcDbEntity
  8
BOARD
100
AcDbLine
 10
4.563
 20
4.692916
 30
0.0
 11
2.824
 21
4.692916
 31
0.0
  0
LINE
  5
1386
100
AcDbEntity
  8
STRAIN-R
100
AcDbLine
 10
3.6875
 20
3.5
 30
0.0
 11
3.6875
 21
4.192916
 31
0.0
  0
LINE
  5
1387
100
AcDbEntity
  8
STRAIN-R
100
AcDbLine
 10
3.6875
 20
4.192916
 30
0.0
 11
4.1875
 21
4.192916
 31
0.0
  0
LINE
  5
1388
100
AcDbEntity
  8
STRAIN-R
100
AcDbLine
 10
4.1875
 20
4.192916
 30
0.0
 11
4.1875
 21
3.5
 31
0.0
  0
LINE
  5
1389
100
AcDbEntity
  8
STRAIN-R
100
AcDbLine
 10
4.1875
 20
3.5
 30
0.0
 11
3.6875
 21
3.5
 31
0.0
  0
LINE
  5
138A
100
AcDbEntity
  8
STRAIN-R
100
AcDbLine
 10
3.6875
 20
4.254866
 30
0.0
 11
3.6875
 21
4.692916
 31
0.0
  0
LINE
  5
138B
100
AcDbEntity
  8
STRAIN-R
100
AcDbLine
 10
3.6875
 20
4.692916
 30
0.0
 11
4.1875
 21
4.692916
 31
0.0
  0
LINE
  5
138C
100
AcDbEntity
  8
STRAIN-R
100
AcDbLine
 10
4.1875
 20
4.692916
 30
0.0
 11
4.1875
 21
4.254866
 31
0.0
  0
LINE
  5
138D
100
AcDbEntity
  8
STRAIN-R
100
AcDbLine
 10
4.1875
 20
4.254866
 30
0.0
 11
3.6875
 21
4.254866
 31
0.0
  0
LINE
  5
138E
100
AcDbEntity
  8
STRAIN-R
100
AcDbLine
 10
7.40625
 20
4.484895
 30
0.0
 11
7.40625
 21
4.609895
 31
0.0
  0
LINE
  5
138F
100
AcDbEntity
  8
STRAIN-R
100
AcDbLine
 10
7.40625
 20
4.609895
 30
0.0
 11
7.03125
 21
4.609895
 31
0.0
  0
LINE
  5
1390
100
AcDbEntity
  8
STRAIN-R
100
AcDbLine
 10
7.03125
 20
4.609895
 30
0.0
 11
7.03125
 21
4.484895
 31
0.0
  0
LINE
  5
1391
100
AcDbEntity
  8
STRAIN-R
100
AcDbLine
 10
7.03125
 20
4.484895
 30
0.0
 11
7.40625
 21
4.484895
 31
0.0
  0
LINE
  5
1392
100
AcDbEntity
  8
FLEX
100
AcDbLine
 10
7.6875
 20
4.484895
 30
0.0
 11
7.6875
 21
4.476895
 31
0.0
  0
LINE
  5
1393
100
AcDbEntity
  8
FLEX
100
AcDbLine
 10
7.6875
 20
4.476895
 30
0.0
 11
6.375
 21
4.476895
 31
0.0
  0
LINE
  5
1394
100
AcDbEntity
  8
FLEX
100
AcDbLine
 10
6.375
 20
4.476895
 30
0.0
 11
6.375
 21
4.484895
 31
0.0
  0
LINE
  5
1395
100
AcDbEntity
  8
FLEX
100
AcDbLine
 10
6.375
 20
4.484895
 30
0.0
 11
7.6875
 21
4.484895
 31
0.0
  0
LINE
  5
1396
100
AcDbEntity
  8
FLEX
100
AcDbLine
 10
7.6875
 20
4.476895
 30
0.0
 11
7.6875
 21
4.468895
 31
0.0
  0
LINE
  5
1397
100
AcDbEntity
  8
FLEX
100
AcDbLine
 10
7.6875
 20
4.468895
 30
0.0
 11
6.375
 21
4.468895
 31
0.0
  0
LINE
  5
1398
100
AcDbEntity
  8
FLEX
100
AcDbLine
 10
6.375
 20
4.468895
 30
0.0
 11
6.375
 21
4.476895
 31
0.0
  0
LINE
  5
1399
100
AcDbEntity
  8
FLEX
100
AcDbLine
 10
6.375
 20
4.476895
 30
0.0
 11
7.6875
 21
4.476895
 31
0.0
  0
LINE
  5
139A
100
AcDbEntity
  8
FLEX
100
AcDbLine
 10
7.6875
 20
4.458895
 30
0.0
 11
7.6875
 21
4.450895
 31
0.0
  0
LINE
  5
139B
100
AcDbEntity
  8
FLEX
100
AcDbLine
 10
7.6875
 20
4.450895
 30
0.0
 11
6.375
 21
4.450895
 31
0.0
  0
LINE
  5
139C
100
AcDbEntity
  8
FLEX
100
AcDbLine
 10
6.375
 20
4.450895
 30
0.0
 11
6.375
 21
4.458895
 31
0.0
  0
LINE
  5
139D
100
AcDbEntity
  8
FLEX
100
AcDbLine
 10
6.375
 20
4.458895
 30
0.0
 11
7.6875
 21
4.458895
 31
0.0
  0
LINE
  5
139E
100
AcDbEntity
  8
FLEX
100
AcDbLine
 10
7.6875
 20
4.450895
 30
0.0
 11
7.6875
 21
4.442895
 31
0.0
  0
LINE
  5
139F
100
AcDbEntity
  8
FLEX
100
AcDbLine
 10
7.6875
 20
4.442895
 30
0.0
 11
6.375
 21
4.442895
 31
0.0
  0
LINE
  5
13A0
100
AcDbEntity
  8
FLEX
100
AcDbLine
 10
6.375
 20
4.442895
 30
0.0
 11
6.375
 21
4.450895
 31
0.0
  0
LINE
  5
13A1
100
AcDbEntity
  8
FLEX
100
AcDbLine
 10
6.375
 20
4.450895
 30
0.0
 11
7.6875
 21
4.450895
 31
0.0
  0
LINE
  5
13A2
100
AcDbEntity
  8
STRAIN-R
100
AcDbLine
 10
7.40625
 20
3.75
 30
0.0
 11
7.40625
 21
4.442895
 31
0.0
  0
LINE
  5
13A3
100
AcDbEntity
  8
STRAIN-R
100
AcDbLine
 10
7.40625
 20
4.442895
 30
0.0
 11
6.90625
 21
4.442895
 31
0.0
  0
LINE
  5
13A4
100
AcDbEntity
  8
STRAIN-R
100
AcDbLine
 10
6.90625
 20
4.442895
 30
0.0
 11
6.90625
 21
3.75
 31
0.0
  0
LINE
  5
13A5
100
AcDbEntity
  8
STRAIN-R
100
AcDbLine
 10
6.90625
 20
3.75
 30
0.0
 11
7.40625
 21
3.75
 31
0.0
  0
CIRCLE
  5
13A6
100
AcDbEntity
  8
STRAIN-R
100
AcDbCircle
 10
7.3125
 20
11.5
 30
0.0
 40
0.05325
  0
CIRCLE
  5
13A7
100
AcDbEntity
  8
HIDDEN
100
AcDbCircle
 10
7.3125
 20
11.5
 30
0.0
 40
0.069
  0
LINE
  5
13A8
100
AcDbEntity
  8
CENTER
100
AcDbLine
 10
7.33025
 20
11.5
 30
0.0
 11
7.29475
 21
11.5
 31
0.0
  0
LINE
  5
13A9
100
AcDbEntity
  8
CENTER
100
AcDbLine
 10
7.3125
 20
11.48225
 30
0.0
 11
7.3125
 21
11.51775
 31
0.0
  0
LINE
  5
13AA
100
AcDbEntity
  8
CENTER
100
AcDbLine
 10
7.277
 20
11.5
 30
0.0
 11
7.13425
 21
11.5
 31
0.0
  0
LINE
  5
13AB
100
AcDbEntity
  8
CENTER
100
AcDbLine
 10
7.3125
 20
11.5355
 30
0.0
 11
7.3125
 21
11.67825
 31
0.0
  0
LINE
  5
13AC
100
AcDbEntity
  8
CENTER
100
AcDbLine
 10
7.348
 20
11.5
 30
0.0
 11
7.49075
 21
11.5
 31
0.0
  0
LINE
  5
13AD
100
AcDbEntity
  8
CENTER
100
AcDbLine
 10
7.3125
 20
11.4645
 30
0.0
 11
7.3125
 21
11.32175
 31
0.0
  0
CIRCLE
  5
13AE
100
AcDbEntity
  8
STRAIN-R
100
AcDbCircle
 10
7.3125
 20
12.875
 30
0.0
 40
0.05325
  0
CIRCLE
  5
13AF
100
AcDbEntity
  8
HIDDEN
100
AcDbCircle
 10
7.3125
 20
12.875
 30
0.0
 40
0.069
  0
LINE
  5
13B0
100
AcDbEntity
  8
CENTER
100
AcDbLine
 10
7.33025
 20
12.875
 30
0.0
 11
7.29475
 21
12.875
 31
0.0
  0
LINE
  5
13B1
100
AcDbEntity
  8
CENTER
100
AcDbLine
 10
7.3125
 20
12.85725
 30
0.0
 11
7.3125
 21
12.89275
 31
0.0
  0
LINE
  5
13B2
100
AcDbEntity
  8
CENTER
100
AcDbLine
 10
7.277
 20
12.875
 30
0.0
 11
7.13425
 21
12.875
 31
0.0
  0
LINE
  5
13B3
100
AcDbEntity
  8
CENTER
100
AcDbLine
 10
7.3125
 20
12.9105
 30
0.0
 11
7.3125
 21
13.05325
 31
0.0
  0
LINE
  5
13B4
100
AcDbEntity
  8
CENTER
100
AcDbLine
 10
7.348
 20
12.875
 30
0.0
 11
7.49075
 21
12.875
 31
0.0
  0
LINE
  5
13B5
100
AcDbEntity
  8
CENTER
100
AcDbLine
 10
7.3125
 20
12.8395
 30
0.0
 11
7.3125
 21
12.69675
 31
0.0
  0
LINE
  5
13B6
100
AcDbEntity
  8
STRAIN-R
100
AcDbLine
 10
7.5
 20
11.375
 30
0.0
 11
7.5
 21
13.0
 31
0.0
  0
LINE
  5
13B7
100
AcDbEntity
  8
STRAIN-R
100
AcDbLine
 10
7.5
 20
13.0
 30
0.0
 11
7.0
 21
13.0
 31
0.0
  0
LINE
  5
13B8
100
AcDbEntity
  8
STRAIN-R
100
AcDbLine
 10
7.0
 20
13.0
 30
0.0
 11
7.0
 21
11.375
 31
0.0
  0
LINE
  5
13B9
100
AcDbEntity
  8
STRAIN-R
100
AcDbLine
 10
7.0
 20
11.375
 30
0.0
 11
7.5
 21
11.375
 31
0.0
  0
LINE
  5
13BA
100
AcDbEntity
  8
FLEX
100
AcDbLine
 10
8.506416
 20
11.810118
 30
0.0
 11
8.506416
 21
12.622715
 31
0.0
  0
LINE
  5
13BB
100
AcDbEntity
  8
FLEX
100
AcDbLine
 10
8.506416
 20
12.622715
 30
0.0
 11
4.57648
 21
12.622715
 31
0.0
  0
LINE
  5
13BC
100
AcDbEntity
  8
FLEX
100
AcDbLine
 10
4.57648
 20
12.622715
 30
0.0
 11
4.57648
 21
11.810118
 31
0.0
  0
LINE
  5
13BD
100
AcDbEntity
  8
FLEX
100
AcDbLine
 10
4.57648
 20
11.810118
 30
0.0
 11
8.506416
 21
11.810118
 31
0.0
  0
CIRCLE
  5
13BE
100
AcDbEntity
  8
STRAIN-R
100
AcDbCircle
 10
21.1875
 20
12.875
 30
0.0
 40
0.05325
  0
CIRCLE
  5
13BF
100
AcDbEntity
  8
HIDDEN
100
AcDbCircle
 10
21.1875
 20
12.875
 30
0.0
 40
0.069
  0
LINE
  5
13C0
100
AcDbEntity
  8
CENTER
100
AcDbLine
 10
21.16975
 20
12.875
 30
0.0
 11
21.20525
 21
12.875
 31
0.0
  0
LINE
  5
13C1
100
AcDbEntity
  8
CENTER
100
AcDbLine
 10
21.1875
 20
12.85725
 30
0.0
 11
21.1875
 21
12.89275
 31
0.0
  0
LINE
  5
13C2
100
AcDbEntity
  8
CENTER
100
AcDbLine
 10
21.223
 20
12.875
 30
0.0
 11
21.36575
 21
12.875
 31
0.0
  0
LINE
  5
13C3
100
AcDbEntity
  8
CENTER
100
AcDbLine
 10
21.1875
 20
12.9105
 30
0.0
 11
21.1875
 21
13.05325
 31
0.0
  0
LINE
  5
13C4
100
AcDbEntity
  8
CENTER
100
AcDbLine
 10
21.152
 20
12.875
 30
0.0
 11
21.00925
 21
12.875
 31
0.0
  0
LINE
  5
13C5
100
AcDbEntity
  8
CENTER
100
AcDbLine
 10
21.1875
 20
12.8395
 30
0.0
 11
21.1875
 21
12.69675
 31
0.0
  0
CIRCLE
  5
13C6
100
AcDbEntity
  8
STRAIN-R
100
AcDbCircle
 10
21.1875
 20
11.5
 30
0.0
 40
0.05325
  0
CIRCLE
  5
13C7
100
AcDbEntity
  8
HIDDEN
100
AcDbCircle
 10
21.1875
 20
11.5
 30
0.0
 40
0.069
  0
LINE
  5
13C8
100
AcDbEntity
  8
CENTER
100
AcDbLine
 10
21.16975
 20
11.5
 30
0.0
 11
21.20525
 21
11.5
 31
0.0
  0
LINE
  5
13C9
100
AcDbEntity
  8
CENTER
100
AcDbLine
 10
21.1875
 20
11.48225
 30
0.0
 11
21.1875
 21
11.51775
 31
0.0
  0
LINE
  5
13CA
100
AcDbEntity
  8
CENTER
100
AcDbLine
 10
21.223
 20
11.5
 30
0.0
 11
21.36575
 21
11.5
 31
0.0
  0
LINE
  5
13CB
100
AcDbEntity
  8
CENTER
100
AcDbLine
 10
21.1875
 20
11.5355
 30
0.0
 11
21.1875
 21
11.67825
 31
0.0
  0
LINE
  5
13CC
100
AcDbEntity
  8
CENTER
100
AcDbLine
 10
21.152
 20
11.5
 30
0.0
 11
21.00925
 21
11.5
 31
0.0
  0
LINE
  5
13CD
100
AcDbEntity
  8
CENTER
100
AcDbLine
 10
21.1875
 20
11.4645
 30
0.0
 11
21.1875
 21
11.32175
 31
0.0
  0
LINE
  5
13CE
100
AcDbEntity
  8
FLEX
100
AcDbLine
 10
19.98284
 20
11.810118
 30
0.0
 11
19.98284
 21
12.622715
 31
0.0
  0
LINE
  5
13CF
100
AcDbEntity
  8
FLEX
100
AcDbLine
 10
19.98284
 20
12.622715
 30
0.0
 11
23.93752
 21
12.622715
 31
0.0
  0
LINE
  5
13D0
100
AcDbEntity
  8
FLEX
100
AcDbLine
 10
23.93752
 20
12.622715
 30
0.0
 11
23.93752
 21
11.810118
 31
0.0
  0
LINE
  5
13D1
100
AcDbEntity
  8
FLEX
100
AcDbLine
 10
23.93752
 20
11.810118
 30
0.0
 11
19.98284
 21
11.810118
 31
0.0
  0
LINE
  5
13D2
100
AcDbEntity
  8
STRAIN-R
100
AcDbLine
 10
21.0
 20
11.375
 30
0.0
 11
21.0
 21
13.0
 31
0.0
  0
LINE
  5
13D3
100
AcDbEntity
  8
STRAIN-R
100
AcDbLine
 10
21.0
 20
13.0
 30
0.0
 11
21.5
 21
13.0
 31
0.0
  0
LINE
  5
13D4
100
AcDbEntity
  8
STRAIN-R
100
AcDbLine
 10
21.5
 20
13.0
 30
0.0
 11
21.5
 21
11.375
 31
0.0
  0
LINE
  5
13D5
100
AcDbEntity
  8
STRAIN-R
100
AcDbLine
 10
21.5
 20
11.375
 30
0.0
 11
21.0
 21
11.375
 31
0.0
  0
LINE
  5
13D6
100
AcDbEntity
  8
BOARD
100
AcDbLine
 10
25.425
 20
4.048891
 30
0.0
 11
25.425
 21
4.398891
 31
0.0
  0
LINE
  5
13D7
100
AcDbEntity
  8
BOARD
100
AcDbLine
 10
25.425
 20
4.398891
 30
0.0
 11
26.175
 21
4.398891
 31
0.0
  0
LINE
  5
13D8
100
AcDbEntity
  8
BOARD
100
AcDbLine
 10
26.175
 20
4.398891
 30
0.0
 11
26.175
 21
4.048891
 31
0.0
  0
LINE
  5
13D9
100
AcDbEntity
  8
BOARD
100
AcDbLine
 10
26.175
 20
4.048891
 30
0.0
 11
25.425
 21
4.048891
 31
0.0
  0
LINE
  5
13DA
100
AcDbEntity
  8
BOARD
100
AcDbLine
 10
25.425
 20
4.548891
 30
0.0
 11
25.425
 21
4.898891
 31
0.0
  0
LINE
  5
13DB
100
AcDbEntity
  8
BOARD
100
AcDbLine
 10
25.425
 20
4.898891
 30
0.0
 11
26.175
 21
4.898891
 31
0.0
  0
LINE
  5
13DC
100
AcDbEntity
  8
BOARD
100
AcDbLine
 10
26.175
 20
4.898891
 30
0.0
 11
26.175
 21
4.548891
 31
0.0
  0
LINE
  5
13DD
100
AcDbEntity
  8
BOARD
100
AcDbLine
 10
26.175
 20
4.548891
 30
0.0
 11
25.425
 21
4.548891
 31
0.0
  0
LINE
  5
13DE
100
AcDbEntity
  8
STRAIN-R
100
AcDbLine
 10
24.4375
 20
4.254866
 30
0.0
 11
24.4375
 21
4.692916
 31
0.0
  0
LINE
  5
13DF
100
AcDbEntity
  8
STRAIN-R
100
AcDbLine
 10
24.4375
 20
4.692916
 30
0.0
 11
24.9375
 21
4.692916
 31
0.0
  0
LINE
  5
13E0
100
AcDbEntity
  8
STRAIN-R
100
AcDbLine
 10
24.9375
 20
4.692916
 30
0.0
 11
24.9375
 21
4.254866
 31
0.0
  0
LINE
  5
13E1
100
AcDbEntity
  8
STRAIN-R
100
AcDbLine
 10
24.9375
 20
4.254866
 30
0.0
 11
24.4375
 21
4.254866
 31
0.0
  0
LINE
  5
13E2
100
AcDbEntity
  8
STRAIN-R
100
AcDbLine
 10
24.4375
 20
3.5
 30
0.0
 11
24.4375
 21
4.192916
 31
0.0
  0
LINE
  5
13E3
100
AcDbEntity
  8
STRAIN-R
100
AcDbLine
 10
24.4375
 20
4.192916
 30
0.0
 11
24.9375
 21
4.192916
 31
0.0
  0
LINE
  5
13E4
100
AcDbEntity
  8
STRAIN-R
100
AcDbLine
 10
24.9375
 20
4.192916
 30
0.0
 11
24.9375
 21
3.5
 31
0.0
  0
LINE
  5
13E5
100
AcDbEntity
  8
STRAIN-R
100
AcDbLine
 10
24.9375
 20
3.5
 30
0.0
 11
24.4375
 21
3.5
 31
0.0
  0
LINE
  5
13E6
100
AcDbEntity
  8
BOARD
100
AcDbLine
 10
23.949989
 20
4.692916
 30
0.0
 11
23.949989
 21
4.754866
 31
0.0
  0
LINE
  5
13E7
100
AcDbEntity
  8
BOARD
100
AcDbLine
 10
23.949989
 20
4.754866
 30
0.0
 11
25.799989
 21
4.754866
 31
0.0
  0
LINE
  5
13E8
100
AcDbEntity
  8
BOARD
100
AcDbLine
 10
25.799989
 20
4.754866
 30
0.0
 11
25.799989
 21
4.692916
 31
0.0
  0
LINE
  5
13E9
100
AcDbEntity
  8
BOARD
100
AcDbLine
 10
25.799989
 20
4.692916
 30
0.0
 11
23.949989
 21
4.692916
 31
0.0
  0
LINE
  5
13EA
100
AcDbEntity
  8
BOARD
100
AcDbLine
 10
23.949989
 20
4.192916
 30
0.0
 11
23.949989
 21
4.254866
 31
0.0
  0
LINE
  5
13EB
100
AcDbEntity
  8
BOARD
100
AcDbLine
 10
23.949989
 20
4.254866
 30
0.0
 11
25.799989
 21
4.254866
 31
0.0
  0
LINE
  5
13EC
100
AcDbEntity
  8
BOARD
100
AcDbLine
 10
25.799989
 20
4.254866
 30
0.0
 11
25.799989
 21
4.192916
 31
0.0
  0
LINE
  5
13ED
100
AcDbEntity
  8
BOARD
100
AcDbLine
 10
25.799989
 20
4.192916
 30
0.0
 11
23.949989
 21
4.192916
 31
0.0
  0
LINE
  5
13EE
100
AcDbEntity
  8
FLEX
100
AcDbLine
 10
20.875
 20
4.450895
 30
0.0
 11
20.875
 21
4.442895
 31
0.0
  0
LINE
  5
13EF
100
AcDbEntity
  8
FLEX
100
AcDbLine
 10
20.875
 20
4.442895
 30
0.0
 11
22.875
 21
4.442895
 31
0.0
  0
LINE
  5
13F0
100
AcDbEntity
  8
FLEX
100
AcDbLine
 10
22.875
 20
4.442895
 30
0.0
 11
22.875
 21
4.450895
 31
0.0
  0
LINE
  5
13F1
100
AcDbEntity
  8
FLEX
100
AcDbLine
 10
22.875
 20
4.450895
 30
0.0
 11
20.875
 21
4.450895
 31
0.0
  0
LINE
  5
13F2
100
AcDbEntity
  8
FLEX
100
AcDbLine
 10
20.875
 20
4.458895
 30
0.0
 11
20.875
 21
4.450895
 31
0.0
  0
LINE
  5
13F3
100
AcDbEntity
  8
FLEX
100
AcDbLine
 10
20.875
 20
4.450895
 30
0.0
 11
22.875
 21
4.450895
 31
0.0
  0
LINE
  5
13F4
100
AcDbEntity
  8
FLEX
100
AcDbLine
 10
22.875
 20
4.450895
 30
0.0
 11
22.875
 21
4.458895
 31
0.0
  0
LINE
  5
13F5
100
AcDbEntity
  8
FLEX
100
AcDbLine
 10
22.875
 20
4.458895
 30
0.0
 11
20.875
 21
4.458895
 31
0.0
  0
LINE
  5
13F6
100
AcDbEntity
  8
FLEX
100
AcDbLine
 10
20.875
 20
4.476895
 30
0.0
 11
20.875
 21
4.468895
 31
0.0
  0
LINE
  5
13F7
100
AcDbEntity
  8
FLEX
100
AcDbLine
 10
20.875
 20
4.468895
 30
0.0
 11
22.875
 21
4.468895
 31
0.0
  0
LINE
  5
13F8
100
AcDbEntity
  8
FLEX
100
AcDbLine
 10
22.875
 20
4.468895
 30
0.0
 11
22.875
 21
4.476895
 31
0.0
  0
LINE
  5
13F9
100
AcDbEntity
  8
FLEX
100
AcDbLine
 10
22.875
 20
4.476895
 30
0.0
 11
20.875
 21
4.476895
 31
0.0
  0
LINE
  5
13FA
100
AcDbEntity
  8
FLEX
100
AcDbLine
 10
20.875
 20
4.484895
 30
0.0
 11
20.875
 21
4.476895
 31
0.0
  0
LINE
  5
13FB
100
AcDbEntity
  8
FLEX
100
AcDbLine
 10
20.875
 20
4.476895
 30
0.0
 11
22.875
 21
4.476895
 31
0.0
  0
LINE
  5
13FC
100
AcDbEntity
  8
FLEX
100
AcDbLine
 10
22.875
 20
4.476895
 30
0.0
 11
22.875
 21
4.484895
 31
0.0
  0
LINE
  5
13FD
100
AcDbEntity
  8
FLEX
100
AcDbLine
 10
22.875
 20
4.484895
 30
0.0
 11
20.875
 21
4.484895
 31
0.0
  0
LINE
  5
13FE
100
AcDbEntity
  8
STRAIN-R
100
AcDbLine
 10
21.09375
 20
4.484895
 30
0.0
 11
21.09375
 21
4.609895
 31
0.0
  0
LINE
  5
13FF
100
AcDbEntity
  8
STRAIN-R
100
AcDbLine
 10
21.09375
 20
4.609895
 30
0.0
 11
21.46875
 21
4.609895
 31
0.0
  0
LINE
  5
1400
100
AcDbEntity
  8
STRAIN-R
100
AcDbLine
 10
21.46875
 20
4.609895
 30
0.0
 11
21.46875
 21
4.484895
 31
0.0
  0
LINE
  5
1401
100
AcDbEntity
  8
STRAIN-R
100
AcDbLine
 10
21.46875
 20
4.484895
 30
0.0
 11
21.09375
 21
4.484895
 31
0.0
  0
LINE
  5
1402
100
AcDbEntity
  8
STRAIN-R
100
AcDbLine
 10
21.09375
 20
3.75
 30
0.0
 11
21.09375
 21
4.442895
 31
0.0
  0
LINE
  5
1403
100
AcDbEntity
  8
STRAIN-R
100
AcDbLine
 10
21.09375
 20
4.442895
 30
0.0
 11
21.59375
 21
4.442895
 31
0.0
  0
LINE
  5
1404
100
AcDbEntity
  8
STRAIN-R
100
AcDbLine
 10
21.59375
 20
4.442895
 30
0.0
 11
21.59375
 21
3.75
 31
0.0
  0
LINE
  5
1405
100
AcDbEntity
  8
STRAIN-R
100
AcDbLine
 10
21.59375
 20
3.75
 30
0.0
 11
21.09375
 21
3.75
 31
0.0
  0
LINE
  5
1406
100
AcDbEntity
  8
BOARD
100
AcDbLine
 10
2.824
 20
4.192916
 30
0.0
 11
2.824
 21
4.254866
 31
0.0
  0
LINE
  5
1407
100
AcDbEntity
  8
BOARD
100
AcDbLine
 10
2.824
 20
4.254866
 30
0.0
 11
4.563
 21
4.254866
 31
0.0
  0
LINE
  5
1408
100
AcDbEntity
  8
BOARD
100
AcDbLine
 10
4.563
 20
4.254866
 30
0.0
 11
4.563
 21
4.192916
 31
0.0
  0
LINE
  5
1409
100
AcDbEntity
  8
BOARD
100
AcDbLine
 10
4.563
 20
4.192916
 30
0.0
 11
2.824
 21
4.192916
 31
0.0
  0
ARC
  5
140A
100
AcDbEntity
  8
BOARD
100
AcDbCircle
 10
3.9945
 20
12.935416
 30
0.0
 40
0.061
100
AcDbArc
 50
270.0
 51
90.0
  0
LINE
  5
140B
100
AcDbEntity
  8
BOARD
100
AcDbLine
 10
3.9945
 20
12.874416
 30
0.0
 11
3.8805
 21
12.874416
 31
0.0
  0
ARC
  5
140C
100
AcDbEntity
  8
BOARD
100
AcDbCircle
 10
3.8805
 20
12.935416
 30
0.0
 40
0.061
100
AcDbArc
 50
90.0
 51
270.0
  0
LINE
  5
140D
100
AcDbEntity
  8
BOARD
100
AcDbLine
 10
3.8805
 20
12.996416
 30
0.0
 11
3.9945
 21
12.996416
 31
0.0
  0
LINE
  5
140E
100
AcDbEntity
  8
CENTER
100
AcDbLine
 10
4.014833
 20
12.935416
 30
0.0
 11
3.974167
 21
12.935416
 31
0.0
  0
LINE
  5
140F
100
AcDbEntity
  8
CENTER
100
AcDbLine
 10
3.9945
 20
12.915083
 30
0.0
 11
3.9945
 21
12.95575
 31
0.0
  0
LINE
  5
1410
100
AcDbEntity
  8
CENTER
100
AcDbLine
 10
3.953833
 20
12.935416
 30
0.0
 11
3.8085
 21
12.935416
 31
0.0
  0
LINE
  5
1411
100
AcDbEntity
  8
CENTER
100
AcDbLine
 10
3.9945
 20
12.976083
 30
0.0
 11
3.9945
 21
13.121416
 31
0.0
  0
LINE
  5
1412
100
AcDbEntity
  8
CENTER
100
AcDbLine
 10
4.035167
 20
12.935416
 30
0.0
 11
4.1805
 21
12.935416
 31
0.0
  0
LINE
  5
1413
100
AcDbEntity
  8
CENTER
100
AcDbLine
 10
3.9945
 20
12.89475
 30
0.0
 11
3.9945
 21
12.749416
 31
0.0
  0
LINE
  5
1414
100
AcDbEntity
  8
CENTER
100
AcDbLine
 10
3.900833
 20
12.935416
 30
0.0
 11
3.860167
 21
12.935416
 31
0.0
  0
LINE
  5
1415
100
AcDbEntity
  8
CENTER
100
AcDbLine
 10
3.8805
 20
12.915083
 30
0.0
 11
3.8805
 21
12.95575
 31
0.0
  0
LINE
  5
1416
100
AcDbEntity
  8
CENTER
100
AcDbLine
 10
3.839833
 20
12.935416
 30
0.0
 11
3.6945
 21
12.935416
 31
0.0
  0
LINE
  5
1417
100
AcDbEntity
  8
CENTER
100
AcDbLine
 10
3.8805
 20
12.976083
 30
0.0
 11
3.8805
 21
13.121416
 31
0.0
  0
LINE
  5
1418
100
AcDbEntity
  8
CENTER
100
AcDbLine
 10
3.921167
 20
12.935416
 30
0.0
 11
4.0665
 21
12.935416
 31
0.0
  0
LINE
  5
1419
100
AcDbEntity
  8
CENTER
100
AcDbLine
 10
3.8805
 20
12.89475
 30
0.0
 11
3.8805
 21
12.749416
 31
0.0
  0
ARC
  5
141A
100
AcDbEntity
  8
BOARD
100
AcDbCircle
 10
3.9945
 20
11.497416
 30
0.0
 40
0.061
100
AcDbArc
 50
270.0
 51
90.0
  0
LINE
  5
141B
100
AcDbEntity
  8
BOARD
100
AcDbLine
 10
3.9945
 20
11.436416
 30
0.0
 11
3.8805
 21
11.436416
 31
0.0
  0
ARC
  5
141C
100
AcDbEntity
  8
BOARD
100
AcDbCircle
 10
3.8805
 20
11.497416
 30
0.0
 40
0.061
100
AcDbArc
 50
90.0
 51
270.0
  0
LINE
  5
141D
100
AcDbEntity
  8
BOARD
100
AcDbLine
 10
3.8805
 20
11.558416
 30
0.0
 11
3.9945
 21
11.558416
 31
0.0
  0
LINE
  5
141E
100
AcDbEntity
  8
CENTER
100
AcDbLine
 10
4.014833
 20
11.497416
 30
0.0
 11
3.974167
 21
11.497416
 31
0.0
  0
LINE
  5
141F
100
AcDbEntity
  8
CENTER
100
AcDbLine
 10
3.9945
 20
11.477083
 30
0.0
 11
3.9945
 21
11.51775
 31
0.0
  0
LINE
  5
1420
100
AcDbEntity
  8
CENTER
100
AcDbLine
 10
3.953833
 20
11.497416
 30
0.0
 11
3.8085
 21
11.497416
 31
0.0
  0
LINE
  5
1421
100
AcDbEntity
  8
CENTER
100
AcDbLine
 10
3.9945
 20
11.538083
 30
0.0
 11
3.9945
 21
11.683416
 31
0.0
  0
LINE
  5
1422
100
AcDbEntity
  8
CENTER
100
AcDbLine
 10
4.035167
 20
11.497416
 30
0.0
 11
4.1805
 21
11.497416
 31
0.0
  0
LINE
  5
1423
100
AcDbEntity
  8
CENTER
100
AcDbLine
 10
3.9945
 20
11.45675
 30
0.0
 11
3.9945
 21
11.311416
 31
0.0
  0
LINE
  5
1424
100
AcDbEntity
  8
CENTER
100
AcDbLine
 10
3.900833
 20
11.497416
 30
0.0
 11
3.860167
 21
11.497416
 31
0.0
  0
LINE
  5
1425
100
AcDbEntity
  8
CENTER
100
AcDbLine
 10
3.8805
 20
11.477083
 30
0.0
 11
3.8805
 21
11.51775
 31
0.0
  0
LINE
  5
1426
100
AcDbEntity
  8
CENTER
100
AcDbLine
 10
3.839833
 20
11.497416
 30
0.0
 11
3.6945
 21
11.497416
 31
0.0
  0
LINE
  5
1427
100
AcDbEntity
  8
CENTER
100
AcDbLine
 10
3.8805
 20
11.538083
 30
0.0
 11
3.8805
 21
11.683416
 31
0.0
  0
LINE
  5
1428
100
AcDbEntity
  8
CENTER
100
AcDbLine
 10
3.921167
 20
11.497416
 30
0.0
 11
4.0665
 21
11.497416
 31
0.0
  0
LINE
  5
1429
100
AcDbEntity
  8
CENTER
100
AcDbLine
 10
3.8805
 20
11.45675
 30
0.0
 11
3.8805
 21
11.311416
 31
0.0
  0
POLYLINE
  5
142A
100
AcDbEntity
  8
BOARD
100
AcDb2dPolyline
 66
     1
 10
0.0
 20
0.0
 30
0.0
 70
     1
  0
VERTEX
  5
142B
100
AcDbEntity
  8
BOARD
100
AcDbVertex
100
AcDb2dVertex
 10
24.6305
 20
12.996416
 30
0.0
 42
1.0
  0
VERTEX
  5
142C
100
AcDbEntity
  8
BOARD
100
AcDbVertex
100
AcDb2dVertex
 10
24.6305
 20
12.874416
 30
0.0
  0
VERTEX
  5
142D
100
AcDbEntity
  8
BOARD
100
AcDbVertex
100
AcDb2dVertex
 10
24.7445
 20
12.874416
 30
0.0
 42
1.0
  0
VERTEX
  5
142E
100
AcDbEntity
  8
BOARD
100
AcDbVertex
100
AcDb2dVertex
 10
24.7445
 20
12.996416
 30
0.0
  0
SEQEND
  5
142F
100
AcDbEntity
  8
BOARD
  0
LINE
  5
1430
100
AcDbEntity
  8
CENTER
100
AcDbLine
 10
24.610167
 20
12.935416
 30
0.0
 11
24.650833
 21
12.935416
 31
0.0
  0
LINE
  5
1431
100
AcDbEntity
  8
CENTER
100
AcDbLine
 10
24.6305
 20
12.915083
 30
0.0
 11
24.6305
 21
12.95575
 31
0.0
  0
LINE
  5
1432
100
AcDbEntity
  8
CENTER
100
AcDbLine
 10
24.671167
 20
12.935416
 30
0.0
 11
24.8165
 21
12.935416
 31
0.0
  0
LINE
  5
1433
100
AcDbEntity
  8
CENTER
100
AcDbLine
 10
24.6305
 20
12.976083
 30
0.0
 11
24.6305
 21
13.121416
 31
0.0
  0
LINE
  5
1434
100
AcDbEntity
  8
CENTER
100
AcDbLine
 10
24.589833
 20
12.935416
 30
0.0
 11
24.4445
 21
12.935416
 31
0.0
  0
LINE
  5
1435
100
AcDbEntity
  8
CENTER
100
AcDbLine
 10
24.6305
 20
12.89475
 30
0.0
 11
24.6305
 21
12.749416
 31
0.0
  0
LINE
  5
1436
100
AcDbEntity
  8
CENTER
100
AcDbLine
 10
24.724167
 20
12.935416
 30
0.0
 11
24.764833
 21
12.935416
 31
0.0
  0
LINE
  5
1437
100
AcDbEntity
  8
CENTER
100
AcDbLine
 10
24.7445
 20
12.915083
 30
0.0
 11
24.7445
 21
12.95575
 31
0.0
  0
LINE
  5
1438
100
AcDbEntity
  8
CENTER
100
AcDbLine
 10
24.785167
 20
12.935416
 30
0.0
 11
24.9305
 21
12.935416
 31
0.0
  0
LINE
  5
1439
100
AcDbEntity
  8
CENTER
100
AcDbLine
 10
24.7445
 20
12.976083
 30
0.0
 11
24.7445
 21
13.121416
 31
0.0
  0
LINE
  5
143A
100
AcDbEntity
  8
CENTER
100
AcDbLine
 10
24.703833
 20
12.935416
 30
0.0
 11
24.5585
 21
12.935416
 31
0.0
  0
LINE
  5
143B
100
AcDbEntity
  8
CENTER
100
AcDbLine
 10
24.7445
 20
12.89475
 30
0.0
 11
24.7445
 21
12.749416
 31
0.0
  0
POLYLINE
  5
143C
100
AcDbEntity
  8
BOARD
100
AcDb2dPolyline
 66
     1
 10
0.0
 20
0.0
 30
0.0
 70
     1
  0
VERTEX
  5
143D
100
AcDbEntity
  8
BOARD
100
AcDbVertex
100
AcDb2dVertex
 10
24.6305
 20
11.558416
 30
0.0
 42
1.0
  0
VERTEX
  5
143E
100
AcDbEntity
  8
BOARD
100
AcDbVertex
100
AcDb2dVertex
 10
24.6305
 20
11.436416
 30
0.0
  0
VERTEX
  5
143F
100
AcDbEntity
  8
BOARD
100
AcDbVertex
100
AcDb2dVertex
 10
24.7445
 20
11.436416
 30
0.0
 42
1.0
  0
VERTEX
  5
1440
100
AcDbEntity
  8
BOARD
100
AcDbVertex
100
AcDb2dVertex
 10
24.7445
 20
11.558416
 30
0.0
  0
SEQEND
  5
1441
100
AcDbEntity
  8
BOARD
  0
LINE
  5
1442
100
AcDbEntity
  8
CENTER
100
AcDbLine
 10
24.610167
 20
11.497416
 30
0.0
 11
24.650833
 21
11.497416
 31
0.0
  0
LINE
  5
1443
100
AcDbEntity
  8
CENTER
100
AcDbLine
 10
24.6305
 20
11.477083
 30
0.0
 11
24.6305
 21
11.51775
 31
0.0
  0
LINE
  5
1444
100
AcDbEntity
  8
CENTER
100
AcDbLine
 10
24.671167
 20
11.497416
 30
0.0
 11
24.8165
 21
11.497416
 31
0.0
  0
LINE
  5
1445
100
AcDbEntity
  8
CENTER
100
AcDbLine
 10
24.6305
 20
11.538083
 30
0.0
 11
24.6305
 21
11.683416
 31
0.0
  0
LINE
  5
1446
100
AcDbEntity
  8
CENTER
100
AcDbLine
 10
24.589833
 20
11.497416
 30
0.0
 11
24.4445
 21
11.497416
 31
0.0
  0
LINE
  5
1447
100
AcDbEntity
  8
CENTER
100
AcDbLine
 10
24.6305
 20
11.45675
 30
0.0
 11
24.6305
 21
11.311416
 31
0.0
  0
LINE
  5
1448
100
AcDbEntity
  8
CENTER
100
AcDbLine
 10
24.724167
 20
11.497416
 30
0.0
 11
24.764833
 21
11.497416
 31
0.0
  0
LINE
  5
1449
100
AcDbEntity
  8
CENTER
100
AcDbLine
 10
24.7445
 20
11.477083
 30
0.0
 11
24.7445
 21
11.51775
 31
0.0
  0
LINE
  5
144A
100
AcDbEntity
  8
CENTER
100
AcDbLine
 10
24.785167
 20
11.497416
 30
0.0
 11
24.9305
 21
11.497416
 31
0.0
  0
LINE
  5
144B
100
AcDbEntity
  8
CENTER
100
AcDbLine
 10
24.7445
 20
11.538083
 30
0.0
 11
24.7445
 21
11.683416
 31
0.0
  0
LINE
  5
144C
100
AcDbEntity
  8
CENTER
100
AcDbLine
 10
24.703833
 20
11.497416
 30
0.0
 11
24.5585
 21
11.497416
 31
0.0
  0
LINE
  5
144D
100
AcDbEntity
  8
CENTER
100
AcDbLine
 10
24.7445
 20
11.45675
 30
0.0
 11
24.7445
 21
11.311416
 31
0.0
  0
LINE
  5
144E
100
AcDbEntity
  8
LID
100
AcDbLine
 10
6.969
 20
3.125
 30
0.0
 11
6.969
 21
6.156
 31
0.0
  0
LINE
  5
144F
100
AcDbEntity
  8
LID
100
AcDbLine
 10
6.969
 20
6.156
 30
0.0
 11
21.531
 21
6.156
 31
0.0
  0
LINE
  5
1450
100
AcDbEntity
  8
LID
100
AcDbLine
 10
21.531
 20
6.156
 30
0.0
 11
21.531
 21
3.125
 31
0.0
  0
LINE
  5
1451
100
AcDbEntity
  8
LID
100
AcDbLine
 10
21.531
 20
3.125
 30
0.0
 11
21.07475
 21
3.125
 31
0.0
  0
LINE
  5
1452
100
AcDbEntity
  8
LID
100
AcDbLine
 10
7.42525
 20
3.125
 30
0.0
 11
6.969
 21
3.125
 31
0.0
  0
CIRCLE
  5
1453
100
AcDbEntity
  8
BASE
100
AcDbCircle
 10
21.0
 20
3.25
 30
0.0
 40
0.05325
  0
CIRCLE
  5
1454
100
AcDbEntity
  8
HIDDEN
100
AcDbCircle
 10
21.0
 20
3.25
 30
0.0
 40
0.069
  0
LINE
  5
1455
100
AcDbEntity
  8
CENTER
100
AcDbLine
 10
20.98225
 20
3.25
 30
0.0
 11
21.01775
 21
3.25
 31
0.0
  0
LINE
  5
1456
100
AcDbEntity
  8
CENTER
100
AcDbLine
 10
21.0
 20
3.23225
 30
0.0
 11
21.0
 21
3.26775
 31
0.0
  0
LINE
  5
1457
100
AcDbEntity
  8
CENTER
100
AcDbLine
 10
21.0355
 20
3.25
 30
0.0
 11
21.17825
 21
3.25
 31
0.0
  0
LINE
  5
1458
100
AcDbEntity
  8
CENTER
100
AcDbLine
 10
21.0
 20
3.2855
 30
0.0
 11
21.0
 21
3.42825
 31
0.0
  0
LINE
  5
1459
100
AcDbEntity
  8
CENTER
100
AcDbLine
 10
20.9645
 20
3.25
 30
0.0
 11
20.82175
 21
3.25
 31
0.0
  0
LINE
  5
145A
100
AcDbEntity
  8
CENTER
100
AcDbLine
 10
21.0
 20
3.2145
 30
0.0
 11
21.0
 21
3.07175
 31
0.0
  0
CIRCLE
  5
145B
100
AcDbEntity
  8
BASE
100
AcDbCircle
 10
14.25
 20
3.25
 30
0.0
 40
0.05325
  0
CIRCLE
  5
145C
100
AcDbEntity
  8
HIDDEN
100
AcDbCircle
 10
14.25
 20
3.25
 30
0.0
 40
0.069
  0
LINE
  5
145D
100
AcDbEntity
  8
CENTER
100
AcDbLine
 10
14.23225
 20
3.25
 30
0.0
 11
14.26775
 21
3.25
 31
0.0
  0
LINE
  5
145E
100
AcDbEntity
  8
CENTER
100
AcDbLine
 10
14.25
 20
3.23225
 30
0.0
 11
14.25
 21
3.26775
 31
0.0
  0
LINE
  5
145F
100
AcDbEntity
  8
CENTER
100
AcDbLine
 10
14.2855
 20
3.25
 30
0.0
 11
14.42825
 21
3.25
 31
0.0
  0
LINE
  5
1460
100
AcDbEntity
  8
CENTER
100
AcDbLine
 10
14.25
 20
3.2855
 30
0.0
 11
14.25
 21
3.42825
 31
0.0
  0
LINE
  5
1461
100
AcDbEntity
  8
CENTER
100
AcDbLine
 10
14.2145
 20
3.25
 30
0.0
 11
14.07175
 21
3.25
 31
0.0
  0
LINE
  5
1462
100
AcDbEntity
  8
CENTER
100
AcDbLine
 10
14.25
 20
3.2145
 30
0.0
 11
14.25
 21
3.07175
 31
0.0
  0
CIRCLE
  5
1463
100
AcDbEntity
  8
BASE
100
AcDbCircle
 10
7.5
 20
3.25
 30
0.0
 40
0.05325
  0
CIRCLE
  5
1464
100
AcDbEntity
  8
HIDDEN
100
AcDbCircle
 10
7.5
 20
3.25
 30
0.0
 40
0.069
  0
LINE
  5
1465
100
AcDbEntity
  8
CENTER
100
AcDbLine
 10
7.48225
 20
3.25
 30
0.0
 11
7.51775
 21
3.25
 31
0.0
  0
LINE
  5
1466
100
AcDbEntity
  8
CENTER
100
AcDbLine
 10
7.5
 20
3.23225
 30
0.0
 11
7.5
 21
3.26775
 31
0.0
  0
LINE
  5
1467
100
AcDbEntity
  8
CENTER
100
AcDbLine
 10
7.5355
 20
3.25
 30
0.0
 11
7.67825
 21
3.25
 31
0.0
  0
LINE
  5
1468
100
AcDbEntity
  8
CENTER
100
AcDbLine
 10
7.5
 20
3.2855
 30
0.0
 11
7.5
 21
3.42825
 31
0.0
  0
LINE
  5
1469
100
AcDbEntity
  8
CENTER
100
AcDbLine
 10
7.4645
 20
3.25
 30
0.0
 11
7.32175
 21
3.25
 31
0.0
  0
LINE
  5
146A
100
AcDbEntity
  8
CENTER
100
AcDbLine
 10
7.5
 20
3.2145
 30
0.0
 11
7.5
 21
3.07175
 31
0.0
  0
LINE
  5
146B
100
AcDbEntity
  8
TEFLON
100
AcDbLine
 10
22.25
 20
3.53
 30
0.0
 11
22.25
 21
3.5
 31
0.0
  0
LINE
  5
146C
100
AcDbEntity
  8
TEFLON
100
AcDbLine
 10
22.25
 20
3.5
 30
0.0
 11
22.75
 21
3.5
 31
0.0
  0
LINE
  5
146D
100
AcDbEntity
  8
TEFLON
100
AcDbLine
 10
22.75
 20
3.5
 30
0.0
 11
22.75
 21
3.53
 31
0.0
  0
LINE
  5
146E
100
AcDbEntity
  8
TEFLON
100
AcDbLine
 10
22.75
 20
3.53
 30
0.0
 11
22.25
 21
3.53
 31
0.0
  0
LINE
  5
146F
100
AcDbEntity
  8
TEFLON
100
AcDbLine
 10
6.25
 20
3.53
 30
0.0
 11
6.25
 21
3.5
 31
0.0
  0
LINE
  5
1470
100
AcDbEntity
  8
TEFLON
100
AcDbLine
 10
6.25
 20
3.5
 30
0.0
 11
6.75
 21
3.5
 31
0.0
  0
LINE
  5
1471
100
AcDbEntity
  8
TEFLON
100
AcDbLine
 10
6.75
 20
3.5
 30
0.0
 11
6.75
 21
3.53
 31
0.0
  0
LINE
  5
1472
100
AcDbEntity
  8
TEFLON
100
AcDbLine
 10
6.75
 20
3.53
 30
0.0
 11
6.25
 21
3.53
 31
0.0
  0
CIRCLE
  5
1473
100
AcDbEntity
  8
BASE
100
AcDbCircle
 10
22.5
 20
10.5
 30
0.0
 40
0.07475
  0
CIRCLE
  5
1474
100
AcDbEntity
  8
HIDDEN
100
AcDbCircle
 10
22.5
 20
10.5
 30
0.0
 40
0.095
  0
LINE
  5
1475
100
AcDbEntity
  8
CENTER
100
AcDbLine
 10
22.475083
 20
10.5
 30
0.0
 11
22.524917
 21
10.5
 31
0.0
  0
LINE
  5
1476
100
AcDbEntity
  8
CENTER
100
AcDbLine
 10
22.5
 20
10.475083
 30
0.0
 11
22.5
 21
10.524917
 31
0.0
  0
LINE
  5
1477
100
AcDbEntity
  8
CENTER
100
AcDbLine
 10
22.549833
 20
10.5
 30
0.0
 11
22.69975
 21
10.5
 31
0.0
  0
LINE
  5
1478
100
AcDbEntity
  8
CENTER
100
AcDbLine
 10
22.5
 20
10.549833
 30
0.0
 11
22.5
 21
10.69975
 31
0.0
  0
LINE
  5
1479
100
AcDbEntity
  8
CENTER
100
AcDbLine
 10
22.450167
 20
10.5
 30
0.0
 11
22.30025
 21
10.5
 31
0.0
  0
LINE
  5
147A
100
AcDbEntity
  8
CENTER
100
AcDbLine
 10
22.5
 20
10.450167
 30
0.0
 11
22.5
 21
10.30025
 31
0.0
  0
CIRCLE
  5
147B
100
AcDbEntity
  8
BASE
100
AcDbCircle
 10
22.5
 20
14.0
 30
0.0
 40
0.07475
  0
CIRCLE
  5
147C
100
AcDbEntity
  8
HIDDEN
100
AcDbCircle
 10
22.5
 20
14.0
 30
0.0
 40
0.095
  0
LINE
  5
147D
100
AcDbEntity
  8
CENTER
100
AcDbLine
 10
22.475083
 20
14.0
 30
0.0
 11
22.524917
 21
14.0
 31
0.0
  0
LINE
  5
147E
100
AcDbEntity
  8
CENTER
100
AcDbLine
 10
22.5
 20
13.975083
 30
0.0
 11
22.5
 21
14.024917
 31
0.0
  0
LINE
  5
147F
100
AcDbEntity
  8
CENTER
100
AcDbLine
 10
22.549833
 20
14.0
 30
0.0
 11
22.69975
 21
14.0
 31
0.0
  0
LINE
  5
1480
100
AcDbEntity
  8
CENTER
100
AcDbLine
 10
22.5
 20
14.049833
 30
0.0
 11
22.5
 21
14.19975
 31
0.0
  0
LINE
  5
1481
100
AcDbEntity
  8
CENTER
100
AcDbLine
 10
22.450167
 20
14.0
 30
0.0
 11
22.30025
 21
14.0
 31
0.0
  0
LINE
  5
1482
100
AcDbEntity
  8
CENTER
100
AcDbLine
 10
22.5
 20
13.950167
 30
0.0
 11
22.5
 21
13.80025
 31
0.0
  0
CIRCLE
  5
1483
100
AcDbEntity
  8
BASE
100
AcDbCircle
 10
6.5
 20
10.5
 30
0.0
 40
0.07475
  0
CIRCLE
  5
1484
100
AcDbEntity
  8
HIDDEN
100
AcDbCircle
 10
6.5
 20
10.5
 30
0.0
 40
0.095
  0
LINE
  5
1485
100
AcDbEntity
  8
CENTER
100
AcDbLine
 10
6.475083
 20
10.5
 30
0.0
 11
6.524917
 21
10.5
 31
0.0
  0
LINE
  5
1486
100
AcDbEntity
  8
CENTER
100
AcDbLine
 10
6.5
 20
10.475083
 30
0.0
 11
6.5
 21
10.524917
 31
0.0
  0
LINE
  5
1487
100
AcDbEntity
  8
CENTER
100
AcDbLine
 10
6.549833
 20
10.5
 30
0.0
 11
6.69975
 21
10.5
 31
0.0
  0
LINE
  5
1488
100
AcDbEntity
  8
CENTER
100
AcDbLine
 10
6.5
 20
10.549833
 30
0.0
 11
6.5
 21
10.69975
 31
0.0
  0
LINE
  5
1489
100
AcDbEntity
  8
CENTER
100
AcDbLine
 10
6.450167
 20
10.5
 30
0.0
 11
6.30025
 21
10.5
 31
0.0
  0
LINE
  5
148A
100
AcDbEntity
  8
CENTER
100
AcDbLine
 10
6.5
 20
10.450167
 30
0.0
 11
6.5
 21
10.30025
 31
0.0
  0
CIRCLE
  5
148B
100
AcDbEntity
  8
BASE
100
AcDbCircle
 10
6.5
 20
14.0
 30
0.0
 40
0.07475
  0
CIRCLE
  5
148C
100
AcDbEntity
  8
HIDDEN
100
AcDbCircle
 10
6.5
 20
14.0
 30
0.0
 40
0.095
  0
LINE
  5
148D
100
AcDbEntity
  8
CENTER
100
AcDbLine
 10
6.475083
 20
14.0
 30
0.0
 11
6.524917
 21
14.0
 31
0.0
  0
LINE
  5
148E
100
AcDbEntity
  8
CENTER
100
AcDbLine
 10
6.5
 20
13.975083
 30
0.0
 11
6.5
 21
14.024917
 31
0.0
  0
LINE
  5
148F
100
AcDbEntity
  8
CENTER
100
AcDbLine
 10
6.549833
 20
14.0
 30
0.0
 11
6.69975
 21
14.0
 31
0.0
  0
LINE
  5
1490
100
AcDbEntity
  8
CENTER
100
AcDbLine
 10
6.5
 20
14.049833
 30
0.0
 11
6.5
 21
14.19975
 31
0.0
  0
LINE
  5
1491
100
AcDbEntity
  8
CENTER
100
AcDbLine
 10
6.450167
 20
14.0
 30
0.0
 11
6.30025
 21
14.0
 31
0.0
  0
LINE
  5
1492
100
AcDbEntity
  8
CENTER
100
AcDbLine
 10
6.5
 20
13.950167
 30
0.0
 11
6.5
 21
13.80025
 31
0.0
  0
CIRCLE
  5
1493
100
AcDbEntity
  8
BASE
100
AcDbCircle
 10
22.5
 20
12.0
 30
0.0
 40
0.125
  0
LINE
  5
1494
100
AcDbEntity
  8
CENTER
100
AcDbLine
 10
22.458333
 20
12.0
 30
0.0
 11
22.541667
 21
12.0
 31
0.0
  0
LINE
  5
1495
100
AcDbEntity
  8
CENTER
100
AcDbLine
 10
22.5
 20
11.958333
 30
0.0
 11
22.5
 21
12.041667
 31
0.0
  0
LINE
  5
1496
100
AcDbEntity
  8
CENTER
100
AcDbLine
 10
22.583333
 20
12.0
 30
0.0
 11
22.75
 21
12.0
 31
0.0
  0
LINE
  5
1497
100
AcDbEntity
  8
CENTER
100
AcDbLine
 10
22.5
 20
12.083333
 30
0.0
 11
22.5
 21
12.25
 31
0.0
  0
LINE
  5
1498
100
AcDbEntity
  8
CENTER
100
AcDbLine
 10
22.416667
 20
12.0
 30
0.0
 11
22.25
 21
12.0
 31
0.0
  0
LINE
  5
1499
100
AcDbEntity
  8
CENTER
100
AcDbLine
 10
22.5
 20
11.916667
 30
0.0
 11
22.5
 21
11.75
 31
0.0
  0
CIRCLE
  5
149A
100
AcDbEntity
  8
BASE
100
AcDbCircle
 10
6.5
 20
12.0
 30
0.0
 40
0.125
  0
LINE
  5
149B
100
AcDbEntity
  8
CENTER
100
AcDbLine
 10
6.458333
 20
12.0
 30
0.0
 11
6.541667
 21
12.0
 31
0.0
  0
LINE
  5
149C
100
AcDbEntity
  8
CENTER
100
AcDbLine
 10
6.5
 20
11.958333
 30
0.0
 11
6.5
 21
12.041667
 31
0.0
  0
LINE
  5
149D
100
AcDbEntity
  8
CENTER
100
AcDbLine
 10
6.583333
 20
12.0
 30
0.0
 11
6.75
 21
12.0
 31
0.0
  0
LINE
  5
149E
100
AcDbEntity
  8
CENTER
100
AcDbLine
 10
6.5
 20
12.083333
 30
0.0
 11
6.5
 21
12.25
 31
0.0
  0
LINE
  5
149F
100
AcDbEntity
  8
CENTER
100
AcDbLine
 10
6.416667
 20
12.0
 30
0.0
 11
6.25
 21
12.0
 31
0.0
  0
LINE
  5
14A0
100
AcDbEntity
  8
CENTER
100
AcDbLine
 10
6.5
 20
11.916667
 30
0.0
 11
6.5
 21
11.75
 31
0.0
  0
LINE
  5
14A1
100
AcDbEntity
  8
BASE
100
AcDbLine
 10
0.5
 20
3.0
 30
0.0
 11
0.5
 21
3.5
 31
0.0
  0
LINE
  5
14A2
100
AcDbEntity
  8
BASE
100
AcDbLine
 10
0.5
 20
3.5
 30
0.0
 11
26.5
 21
3.5
 31
0.0
  0
LINE
  5
14A3
100
AcDbEntity
  8
BASE
100
AcDbLine
 10
26.5
 20
3.5
 30
0.0
 11
26.5
 21
3.0
 31
0.0
  0
LINE
  5
14A4
100
AcDbEntity
  8
BASE
100
AcDbLine
 10
26.5
 20
3.0
 30
0.0
 11
0.5
 21
3.0
 31
0.0
  0
CIRCLE
  5
14A5
100
AcDbEntity
  8
C-FIBER
100
AcDbCircle
 10
22.5
 20
13.0
 30
0.0
 40
0.1005
  0
LINE
  5
14A6
100
AcDbEntity
  8
CENTER
100
AcDbLine
 10
22.4665
 20
13.0
 30
0.0
 11
22.5335
 21
13.0
 31
0.0
  0
LINE
  5
14A7
100
AcDbEntity
  8
CENTER
100
AcDbLine
 10
22.5
 20
12.9665
 30
0.0
 11
22.5
 21
13.0335
 31
0.0
  0
LINE
  5
14A8
100
AcDbEntity
  8
CENTER
100
AcDbLine
 10
22.567
 20
13.0
 30
0.0
 11
22.7255
 21
13.0
 31
0.0
  0
LINE
  5
14A9
100
AcDbEntity
  8
CENTER
100
AcDbLine
 10
22.5
 20
13.067
 30
0.0
 11
22.5
 21
13.2255
 31
0.0
  0
LINE
  5
14AA
100
AcDbEntity
  8
CENTER
100
AcDbLine
 10
22.433
 20
13.0
 30
0.0
 11
22.2745
 21
13.0
 31
0.0
  0
LINE
  5
14AB
100
AcDbEntity
  8
CENTER
100
AcDbLine
 10
22.5
 20
12.933
 30
0.0
 11
22.5
 21
12.7745
 31
0.0
  0
CIRCLE
  5
14AC
100
AcDbEntity
  8
C-FIBER
100
AcDbCircle
 10
22.5
 20
12.0
 30
0.0
 40
0.125
  0
LINE
  5
14AD
100
AcDbEntity
  8
CENTER
100
AcDbLine
 10
22.458333
 20
12.0
 30
0.0
 11
22.541667
 21
12.0
 31
0.0
  0
LINE
  5
14AE
100
AcDbEntity
  8
CENTER
100
AcDbLine
 10
22.5
 20
11.958333
 30
0.0
 11
22.5
 21
12.041667
 31
0.0
  0
LINE
  5
14AF
100
AcDbEntity
  8
CENTER
100
AcDbLine
 10
22.583333
 20
12.0
 30
0.0
 11
22.75
 21
12.0
 31
0.0
  0
LINE
  5
14B0
100
AcDbEntity
  8
CENTER
100
AcDbLine
 10
22.5
 20
12.083333
 30
0.0
 11
22.5
 21
12.25
 31
0.0
  0
LINE
  5
14B1
100
AcDbEntity
  8
CENTER
100
AcDbLine
 10
22.416667
 20
12.0
 30
0.0
 11
22.25
 21
12.0
 31
0.0
  0
LINE
  5
14B2
100
AcDbEntity
  8
CENTER
100
AcDbLine
 10
22.5
 20
11.916667
 30
0.0
 11
22.5
 21
11.75
 31
0.0
  0
CIRCLE
  5
14B3
100
AcDbEntity
  8
C-FIBER
100
AcDbCircle
 10
6.5
 20
12.0
 30
0.0
 40
0.125
  0
LINE
  5
14B4
100
AcDbEntity
  8
CENTER
100
AcDbLine
 10
6.458333
 20
12.0
 30
0.0
 11
6.541667
 21
12.0
 31
0.0
  0
LINE
  5
14B5
100
AcDbEntity
  8
CENTER
100
AcDbLine
 10
6.5
 20
11.958333
 30
0.0
 11
6.5
 21
12.041667
 31
0.0
  0
LINE
  5
14B6
100
AcDbEntity
  8
CENTER
100
AcDbLine
 10
6.583333
 20
12.0
 30
0.0
 11
6.75
 21
12.0
 31
0.0
  0
LINE
  5
14B7
100
AcDbEntity
  8
CENTER
100
AcDbLine
 10
6.5
 20
12.083333
 30
0.0
 11
6.5
 21
12.25
 31
0.0
  0
LINE
  5
14B8
100
AcDbEntity
  8
CENTER
100
AcDbLine
 10
6.416667
 20
12.0
 30
0.0
 11
6.25
 21
12.0
 31
0.0
  0
LINE
  5
14B9
100
AcDbEntity
  8
CENTER
100
AcDbLine
 10
6.5
 20
11.916667
 30
0.0
 11
6.5
 21
11.75
 31
0.0
  0
LINE
  5
14BA
100
AcDbEntity
  8
BASE
100
AcDbLine
 10
0.5
 20
10.25
 30
0.0
 11
0.5
 21
14.25
 31
0.0
  0
LINE
  5
14BB
100
AcDbEntity
  8
BASE
100
AcDbLine
 10
0.5
 20
14.25
 30
0.0
 11
28.5
 21
14.25
 31
0.0
  0
LINE
  5
14BC
100
AcDbEntity
  8
BASE
100
AcDbLine
 10
28.5
 20
14.25
 30
0.0
 11
28.5
 21
10.25
 31
0.0
  0
LINE
  5
14BD
100
AcDbEntity
  8
BASE
100
AcDbLine
 10
28.5
 20
10.25
 30
0.0
 11
0.5
 21
10.25
 31
0.0
  0
CIRCLE
  5
14BE
100
AcDbEntity
  8
C-FIBER
100
AcDbCircle
 10
22.5
 20
11.0
 30
0.0
 40
0.1005
  0
LINE
  5
14BF
100
AcDbEntity
  8
CENTER
100
AcDbLine
 10
22.4665
 20
11.0
 30
0.0
 11
22.5335
 21
11.0
 31
0.0
  0
LINE
  5
14C0
100
AcDbEntity
  8
CENTER
100
AcDbLine
 10
22.5
 20
10.9665
 30
0.0
 11
22.5
 21
11.0335
 31
0.0
  0
LINE
  5
14C1
100
AcDbEntity
  8
CENTER
100
AcDbLine
 10
22.567
 20
11.0
 30
0.0
 11
22.7255
 21
11.0
 31
0.0
  0
LINE
  5
14C2
100
AcDbEntity
  8
CENTER
100
AcDbLine
 10
22.5
 20
11.067
 30
0.0
 11
22.5
 21
11.2255
 31
0.0
  0
LINE
  5
14C3
100
AcDbEntity
  8
CENTER
100
AcDbLine
 10
22.433
 20
11.0
 30
0.0
 11
22.2745
 21
11.0
 31
0.0
  0
LINE
  5
14C4
100
AcDbEntity
  8
CENTER
100
AcDbLine
 10
22.5
 20
10.933
 30
0.0
 11
22.5
 21
10.7745
 31
0.0
  0
LINE
  5
14C5
100
AcDbEntity
  8
C-FIBER
100
AcDbLine
 10
6.25
 20
10.25
 30
0.0
 11
6.25
 21
14.25
 31
0.0
  0
LINE
  5
14C6
100
AcDbEntity
  8
C-FIBER
100
AcDbLine
 10
6.25
 20
14.25
 30
0.0
 11
22.75
 21
14.25
 31
0.0
  0
LINE
  5
14C7
100
AcDbEntity
  8
C-FIBER
100
AcDbLine
 10
22.75
 20
14.25
 30
0.0
 11
22.75
 21
10.25
 31
0.0
  0
LINE
  5
14C8
100
AcDbEntity
  8
C-FIBER
100
AcDbLine
 10
22.75
 20
10.25
 30
0.0
 11
6.25
 21
10.25
 31
0.0
  0
LINE
  5
14C9
100
AcDbEntity
  8
C-FIBER
100
AcDbLine
 10
6.25
 20
3.53
 30
0.0
 11
6.25
 21
3.75
 31
0.0
  0
LINE
  5
14CA
100
AcDbEntity
  8
C-FIBER
100
AcDbLine
 10
6.25
 20
3.75
 30
0.0
 11
22.75
 21
3.75
 31
0.0
  0
LINE
  5
14CB
100
AcDbEntity
  8
C-FIBER
100
AcDbLine
 10
22.75
 20
3.75
 30
0.0
 11
22.75
 21
3.53
 31
0.0
  0
LINE
  5
14CC
100
AcDbEntity
  8
C-FIBER
100
AcDbLine
 10
22.75
 20
3.53
 30
0.0
 11
6.25
 21
3.53
 31
0.0
  0
LINE
  5
14CD
100
AcDbEntity
  8
COOLING
100
AcDbLine
 10
9.191454
 20
12.393581
 30
0.0
 11
9.191454
 21
12.77547
 31
0.0
  0
LINE
  5
14CE
100
AcDbEntity
  8
COOLING
100
AcDbLine
 10
9.191454
 20
12.77547
 30
0.0
 11
8.801691
 21
12.77547
 31
0.0
  0
LINE
  5
14CF
100
AcDbEntity
  8
COOLING
100
AcDbLine
 10
8.801691
 20
12.77547
 30
0.0
 11
8.801691
 21
12.393581
 31
0.0
  0
LINE
  5
14D0
100
AcDbEntity
  8
COOLING
100
AcDbLine
 10
8.801691
 20
12.393581
 30
0.0
 11
9.191454
 21
12.393581
 31
0.0
  0
LINE
  5
14D1
100
AcDbEntity
  8
COOLING
100
AcDbLine
 10
9.191454
 20
11.657362
 30
0.0
 11
9.191454
 21
12.039251
 31
0.0
  0
LINE
  5
14D2
100
AcDbEntity
  8
COOLING
100
AcDbLine
 10
9.191454
 20
12.039251
 30
0.0
 11
8.801691
 21
12.039251
 31
0.0
  0
LINE
  5
14D3
100
AcDbEntity
  8
COOLING
100
AcDbLine
 10
8.801691
 20
12.039251
 30
0.0
 11
8.801691
 21
11.657362
 31
0.0
  0
LINE
  5
14D4
100
AcDbEntity
  8
COOLING
100
AcDbLine
 10
8.801691
 20
11.657362
 30
0.0
 11
9.191454
 21
11.657362
 31
0.0
  0
CIRCLE
  5
14D5
100
AcDbEntity
  8
COOLING
100
AcDbCircle
 10
10.0
 20
10.875
 30
0.0
 40
0.1875
  0
CIRCLE
  5
14D6
100
AcDbEntity
  8
COOLING
100
AcDbCircle
 10
10.0
 20
10.875
 30
0.0
 40
0.1005
  0
LINE
  5
14D7
100
AcDbEntity
  8
CENTER
100
AcDbLine
 10
10.0625
 20
10.875
 30
0.0
 11
9.9375
 21
10.875
 31
0.0
  0
LINE
  5
14D8
100
AcDbEntity
  8
CENTER
100
AcDbLine
 10
10.0
 20
10.8125
 30
0.0
 11
10.0
 21
10.9375
 31
0.0
  0
LINE
  5
14D9
100
AcDbEntity
  8
CENTER
100
AcDbLine
 10
9.875
 20
10.875
 30
0.0
 11
9.6875
 21
10.875
 31
0.0
  0
LINE
  5
14DA
100
AcDbEntity
  8
CENTER
100
AcDbLine
 10
10.0
 20
11.0
 30
0.0
 11
10.0
 21
11.1875
 31
0.0
  0
LINE
  5
14DB
100
AcDbEntity
  8
CENTER
100
AcDbLine
 10
10.125
 20
10.875
 30
0.0
 11
10.3125
 21
10.875
 31
0.0
  0
LINE
  5
14DC
100
AcDbEntity
  8
CENTER
100
AcDbLine
 10
10.0
 20
10.75
 30
0.0
 11
10.0
 21
10.5625
 31
0.0
  0
CIRCLE
  5
14DD
100
AcDbEntity
  8
COOLING
100
AcDbCircle
 10
8.625
 20
10.875
 30
0.0
 40
0.125
  0
LINE
  5
14DE
100
AcDbEntity
  8
CENTER
100
AcDbLine
 10
8.666667
 20
10.875
 30
0.0
 11
8.583333
 21
10.875
 31
0.0
  0
LINE
  5
14DF
100
AcDbEntity
  8
CENTER
100
AcDbLine
 10
8.625
 20
10.833333
 30
0.0
 11
8.625
 21
10.916667
 31
0.0
  0
LINE
  5
14E0
100
AcDbEntity
  8
CENTER
100
AcDbLine
 10
8.541667
 20
10.875
 30
0.0
 11
8.375
 21
10.875
 31
0.0
  0
LINE
  5
14E1
100
AcDbEntity
  8
CENTER
100
AcDbLine
 10
8.625
 20
10.958333
 30
0.0
 11
8.625
 21
11.125
 31
0.0
  0
LINE
  5
14E2
100
AcDbEntity
  8
CENTER
100
AcDbLine
 10
8.708333
 20
10.875
 30
0.0
 11
8.875
 21
10.875
 31
0.0
  0
LINE
  5
14E3
100
AcDbEntity
  8
CENTER
100
AcDbLine
 10
8.625
 20
10.791667
 30
0.0
 11
8.625
 21
10.625
 31
0.0
  0
LINE
  5
14E4
100
AcDbEntity
  8
COOLING
100
AcDbLine
 10
9.3295
 20
10.5
 30
0.0
 11
9.3295
 21
13.5
 31
0.0
  0
LINE
  5
14E5
100
AcDbEntity
  8
COOLING
100
AcDbLine
 10
9.1705
 20
10.5
 30
0.0
 11
9.1705
 21
13.5
 31
0.0
  0
LINE
  5
14E6
100
AcDbEntity
  8
HIDDEN
100
AcDbLine
 10
9.345
 20
10.5
 30
0.0
 11
9.345
 21
10.88
 31
0.0
  0
LINE
  5
14E7
100
AcDbEntity
  8
HIDDEN
100
AcDbLine
 10
9.345
 20
10.88
 30
0.0
 11
9.155
 21
10.88
 31
0.0
  0
LINE
  5
14E8
100
AcDbEntity
  8
HIDDEN
100
AcDbLine
 10
9.155
 20
10.88
 30
0.0
 11
9.155
 21
10.5
 31
0.0
  0
LINE
  5
14E9
100
AcDbEntity
  8
CENTER
100
AcDbLine
 10
9.25
 20
10.375
 30
0.0
 11
9.25
 21
13.625
 31
0.0
  0
LINE
  5
14EA
100
AcDbEntity
  8
COOLING
100
AcDbLine
 10
9.3295
 20
14.25
 30
0.0
 11
9.3295
 21
11.25
 31
0.0
  0
LINE
  5
14EB
100
AcDbEntity
  8
COOLING
100
AcDbLine
 10
9.1705
 20
14.25
 30
0.0
 11
9.1705
 21
11.25
 31
0.0
  0
POLYLINE
  5
14EC
100
AcDbEntity
  8
HIDDEN
100
AcDb2dPolyline
 66
     1
 10
0.0
 20
0.0
 30
0.0
  0
VERTEX
  5
14ED
100
AcDbEntity
  8
HIDDEN
100
AcDbVertex
100
AcDb2dVertex
 10
9.345
 20
14.25
 30
0.0
  0
VERTEX
  5
14EE
100
AcDbEntity
  8
HIDDEN
100
AcDbVertex
100
AcDb2dVertex
 10
9.345
 20
13.87
 30
0.0
  0
VERTEX
  5
14EF
100
AcDbEntity
  8
HIDDEN
100
AcDbVertex
100
AcDb2dVertex
 10
9.155
 20
13.87
 30
0.0
  0
VERTEX
  5
14F0
100
AcDbEntity
  8
HIDDEN
100
AcDbVertex
100
AcDb2dVertex
 10
9.155
 20
14.25
 30
0.0
  0
SEQEND
  5
14F1
100
AcDbEntity
  8
HIDDEN
  0
LINE
  5
14F2
100
AcDbEntity
  8
CENTER
100
AcDbLine
 10
9.25
 20
14.375
 30
0.0
 11
9.25
 21
11.125
 31
0.0
  0
CIRCLE
  5
14F3
100
AcDbEntity
  8
COOLING
100
AcDbCircle
 10
8.625
 20
13.875
 30
0.0
 40
0.1875
  0
CIRCLE
  5
14F4
100
AcDbEntity
  8
COOLING
100
AcDbCircle
 10
8.625
 20
13.875
 30
0.0
 40
0.1005
  0
LINE
  5
14F5
100
AcDbEntity
  8
CENTER
100
AcDbLine
 10
8.6875
 20
13.875
 30
0.0
 11
8.5625
 21
13.875
 31
0.0
  0
LINE
  5
14F6
100
AcDbEntity
  8
CENTER
100
AcDbLine
 10
8.625
 20
13.9375
 30
0.0
 11
8.625
 21
13.8125
 31
0.0
  0
LINE
  5
14F7
100
AcDbEntity
  8
CENTER
100
AcDbLine
 10
8.5
 20
13.875
 30
0.0
 11
8.3125
 21
13.875
 31
0.0
  0
LINE
  5
14F8
100
AcDbEntity
  8
CENTER
100
AcDbLine
 10
8.625
 20
13.75
 30
0.0
 11
8.625
 21
13.5625
 31
0.0
  0
LINE
  5
14F9
100
AcDbEntity
  8
CENTER
100
AcDbLine
 10
8.75
 20
13.875
 30
0.0
 11
8.9375
 21
13.875
 31
0.0
  0
LINE
  5
14FA
100
AcDbEntity
  8
CENTER
100
AcDbLine
 10
8.625
 20
14.0
 30
0.0
 11
8.625
 21
14.1875
 31
0.0
  0
CIRCLE
  5
14FB
100
AcDbEntity
  8
COOLING
100
AcDbCircle
 10
10.0
 20
13.875
 30
0.0
 40
0.125
  0
LINE
  5
14FC
100
AcDbEntity
  8
CENTER
100
AcDbLine
 10
10.041667
 20
13.875
 30
0.0
 11
9.958333
 21
13.875
 31
0.0
  0
LINE
  5
14FD
100
AcDbEntity
  8
CENTER
100
AcDbLine
 10
10.0
 20
13.916667
 30
0.0
 11
10.0
 21
13.833333
 31
0.0
  0
LINE
  5
14FE
100
AcDbEntity
  8
CENTER
100
AcDbLine
 10
9.916667
 20
13.875
 30
0.0
 11
9.75
 21
13.875
 31
0.0
  0
LINE
  5
14FF
100
AcDbEntity
  8
CENTER
100
AcDbLine
 10
10.0
 20
13.791667
 30
0.0
 11
10.0
 21
13.625
 31
0.0
  0
LINE
  5
1500
100
AcDbEntity
  8
CENTER
100
AcDbLine
 10
10.083333
 20
13.875
 30
0.0
 11
10.25
 21
13.875
 31
0.0
  0
LINE
  5
1501
100
AcDbEntity
  8
CENTER
100
AcDbLine
 10
10.0
 20
13.958333
 30
0.0
 11
10.0
 21
14.125
 31
0.0
  0
LINE
  5
1502
100
AcDbEntity
  8
COOLING
100
AcDbLine
 10
19.1705
 20
14.25
 30
0.0
 11
19.1705
 21
11.25
 31
0.0
  0
LINE
  5
1503
100
AcDbEntity
  8
COOLING
100
AcDbLine
 10
19.3295
 20
14.25
 30
0.0
 11
19.3295
 21
11.25
 31
0.0
  0
LINE
  5
1504
100
AcDbEntity
  8
HIDDEN
100
AcDbLine
 10
19.155
 20
14.25
 30
0.0
 11
19.155
 21
13.87
 31
0.0
  0
LINE
  5
1505
100
AcDbEntity
  8
HIDDEN
100
AcDbLine
 10
19.155
 20
13.87
 30
0.0
 11
19.345
 21
13.87
 31
0.0
  0
LINE
  5
1506
100
AcDbEntity
  8
HIDDEN
100
AcDbLine
 10
19.345
 20
13.87
 30
0.0
 11
19.345
 21
14.25
 31
0.0
  0
LINE
  5
1507
100
AcDbEntity
  8
CENTER
100
AcDbLine
 10
19.25
 20
14.375
 30
0.0
 11
19.25
 21
11.125
 31
0.0
  0
CIRCLE
  5
1508
100
AcDbEntity
  8
COOLING
100
AcDbCircle
 10
19.875
 20
13.875
 30
0.0
 40
0.1875
  0
CIRCLE
  5
1509
100
AcDbEntity
  8
COOLING
100
AcDbCircle
 10
19.875
 20
13.875
 30
0.0
 40
0.1005
  0
LINE
  5
150A
100
AcDbEntity
  8
CENTER
100
AcDbLine
 10
19.8125
 20
13.875
 30
0.0
 11
19.9375
 21
13.875
 31
0.0
  0
LINE
  5
150B
100
AcDbEntity
  8
CENTER
100
AcDbLine
 10
19.875
 20
13.9375
 30
0.0
 11
19.875
 21
13.8125
 31
0.0
  0
LINE
  5
150C
100
AcDbEntity
  8
CENTER
100
AcDbLine
 10
20.0
 20
13.875
 30
0.0
 11
20.1875
 21
13.875
 31
0.0
  0
LINE
  5
150D
100
AcDbEntity
  8
CENTER
100
AcDbLine
 10
19.875
 20
13.75
 30
0.0
 11
19.875
 21
13.5625
 31
0.0
  0
LINE
  5
150E
100
AcDbEntity
  8
CENTER
100
AcDbLine
 10
19.75
 20
13.875
 30
0.0
 11
19.5625
 21
13.875
 31
0.0
  0
LINE
  5
150F
100
AcDbEntity
  8
CENTER
100
AcDbLine
 10
19.875
 20
14.0
 30
0.0
 11
19.875
 21
14.1875
 31
0.0
  0
CIRCLE
  5
1510
100
AcDbEntity
  8
COOLING
100
AcDbCircle
 10
18.5
 20
13.875
 30
0.0
 40
0.125
  0
LINE
  5
1511
100
AcDbEntity
  8
CENTER
100
AcDbLine
 10
18.458333
 20
13.875
 30
0.0
 11
18.541667
 21
13.875
 31
0.0
  0
LINE
  5
1512
100
AcDbEntity
  8
CENTER
100
AcDbLine
 10
18.5
 20
13.916667
 30
0.0
 11
18.5
 21
13.833333
 31
0.0
  0
LINE
  5
1513
100
AcDbEntity
  8
CENTER
100
AcDbLine
 10
18.583333
 20
13.875
 30
0.0
 11
18.75
 21
13.875
 31
0.0
  0
LINE
  5
1514
100
AcDbEntity
  8
CENTER
100
AcDbLine
 10
18.5
 20
13.791667
 30
0.0
 11
18.5
 21
13.625
 31
0.0
  0
LINE
  5
1515
100
AcDbEntity
  8
CENTER
100
AcDbLine
 10
18.416667
 20
13.875
 30
0.0
 11
18.25
 21
13.875
 31
0.0
  0
LINE
  5
1516
100
AcDbEntity
  8
CENTER
100
AcDbLine
 10
18.5
 20
13.958333
 30
0.0
 11
18.5
 21
14.125
 31
0.0
  0
LINE
  5
1517
100
AcDbEntity
  8
COOLING
100
AcDbLine
 10
19.1705
 20
10.5
 30
0.0
 11
19.1705
 21
13.5
 31
0.0
  0
LINE
  5
1518
100
AcDbEntity
  8
COOLING
100
AcDbLine
 10
19.3295
 20
10.5
 30
0.0
 11
19.3295
 21
13.5
 31
0.0
  0
POLYLINE
  5
1519
100
AcDbEntity
  8
HIDDEN
100
AcDb2dPolyline
 66
     1
 10
0.0
 20
0.0
 30
0.0
  0
VERTEX
  5
151A
100
AcDbEntity
  8
HIDDEN
100
AcDbVertex
100
AcDb2dVertex
 10
19.155
 20
10.5
 30
0.0
  0
VERTEX
  5
151B
100
AcDbEntity
  8
HIDDEN
100
AcDbVertex
100
AcDb2dVertex
 10
19.155
 20
10.88
 30
0.0
  0
VERTEX
  5
151C
100
AcDbEntity
  8
HIDDEN
100
AcDbVertex
100
AcDb2dVertex
 10
19.345
 20
10.88
 30
0.0
  0
VERTEX
  5
151D
100
AcDbEntity
  8
HIDDEN
100
AcDbVertex
100
AcDb2dVertex
 10
19.345
 20
10.5
 30
0.0
  0
SEQEND
  5
151E
100
AcDbEntity
  8
HIDDEN
  0
LINE
  5
151F
100
AcDbEntity
  8
CENTER
100
AcDbLine
 10
19.25
 20
10.375
 30
0.0
 11
19.25
 21
13.625
 31
0.0
  0
CIRCLE
  5
1520
100
AcDbEntity
  8
COOLING
100
AcDbCircle
 10
19.875
 20
10.875
 30
0.0
 40
0.125
  0
LINE
  5
1521
100
AcDbEntity
  8
CENTER
100
AcDbLine
 10
19.833333
 20
10.875
 30
0.0
 11
19.916667
 21
10.875
 31
0.0
  0
LINE
  5
1522
100
AcDbEntity
  8
CENTER
100
AcDbLine
 10
19.875
 20
10.833333
 30
0.0
 11
19.875
 21
10.916667
 31
0.0
  0
LINE
  5
1523
100
AcDbEntity
  8
CENTER
100
AcDbLine
 10
19.958333
 20
10.875
 30
0.0
 11
20.125
 21
10.875
 31
0.0
  0
LINE
  5
1524
100
AcDbEntity
  8
CENTER
100
AcDbLine
 10
19.875
 20
10.958333
 30
0.0
 11
19.875
 21
11.125
 31
0.0
  0
LINE
  5
1525
100
AcDbEntity
  8
CENTER
100
AcDbLine
 10
19.791667
 20
10.875
 30
0.0
 11
19.625
 21
10.875
 31
0.0
  0
LINE
  5
1526
100
AcDbEntity
  8
CENTER
100
AcDbLine
 10
19.875
 20
10.791667
 30
0.0
 11
19.875
 21
10.625
 31
0.0
  0
CIRCLE
  5
1527
100
AcDbEntity
  8
COOLING
100
AcDbCircle
 10
18.5
 20
10.875
 30
0.0
 40
0.1875
  0
CIRCLE
  5
1528
100
AcDbEntity
  8
COOLING
100
AcDbCircle
 10
18.5
 20
10.875
 30
0.0
 40
0.1005
  0
LINE
  5
1529
100
AcDbEntity
  8
CENTER
100
AcDbLine
 10
18.4375
 20
10.875
 30
0.0
 11
18.5625
 21
10.875
 31
0.0
  0
LINE
  5
152A
100
AcDbEntity
  8
CENTER
100
AcDbLine
 10
18.5
 20
10.8125
 30
0.0
 11
18.5
 21
10.9375
 31
0.0
  0
LINE
  5
152B
100
AcDbEntity
  8
CENTER
100
AcDbLine
 10
18.625
 20
10.875
 30
0.0
 11
18.8125
 21
10.875
 31
0.0
  0
LINE
  5
152C
100
AcDbEntity
  8
CENTER
100
AcDbLine
 10
18.5
 20
11.0
 30
0.0
 11
18.5
 21
11.1875
 31
0.0
  0
LINE
  5
152D
100
AcDbEntity
  8
CENTER
100
AcDbLine
 10
18.375
 20
10.875
 30
0.0
 11
18.1875
 21
10.875
 31
0.0
  0
LINE
  5
152E
100
AcDbEntity
  8
CENTER
100
AcDbLine
 10
18.5
 20
10.75
 30
0.0
 11
18.5
 21
10.5625
 31
0.0
  0
LINE
  5
152F
100
AcDbEntity
  8
COOLING
100
AcDbLine
 10
19.297802
 20
12.393581
 30
0.0
 11
19.297802
 21
12.77547
 31
0.0
  0
LINE
  5
1530
100
AcDbEntity
  8
COOLING
100
AcDbLine
 10
19.297802
 20
12.77547
 30
0.0
 11
19.687565
 21
12.77547
 31
0.0
  0
LINE
  5
1531
100
AcDbEntity
  8
COOLING
100
AcDbLine
 10
19.687565
 20
12.77547
 30
0.0
 11
19.687565
 21
12.393581
 31
0.0
  0
LINE
  5
1532
100
AcDbEntity
  8
COOLING
100
AcDbLine
 10
19.687565
 20
12.393581
 30
0.0
 11
19.297802
 21
12.393581
 31
0.0
  0
LINE
  5
1533
100
AcDbEntity
  8
COOLING
100
AcDbLine
 10
19.297802
 20
11.657362
 30
0.0
 11
19.297802
 21
12.039251
 31
0.0
  0
LINE
  5
1534
100
AcDbEntity
  8
COOLING
100
AcDbLine
 10
19.297802
 20
12.039251
 30
0.0
 11
19.687565
 21
12.039251
 31
0.0
  0
LINE
  5
1535
100
AcDbEntity
  8
COOLING
100
AcDbLine
 10
19.687565
 20
12.039251
 30
0.0
 11
19.687565
 21
11.657362
 31
0.0
  0
LINE
  5
1536
100
AcDbEntity
  8
COOLING
100
AcDbLine
 10
19.687565
 20
11.657362
 30
0.0
 11
19.297802
 21
11.657362
 31
0.0
  0
TEXT
  5
1537
100
AcDbEntity
  8
COOLING
100
AcDbText
 10
27.336164
 20
1.131501
 30
0.0
 40
0.12
  1
SHIPPING FIXTURE FOR LAYER 1-2
100
AcDbText
  0
TEXT
  5
1538
100
AcDbEntity
  8
COOLING
100
AcDbText
 10
28.696164
 20
0.931501
 30
0.0
 40
0.12
  1
MODULE
100
AcDbText
  0
INSERT
  5
1539
100
AcDbEntity
  8
CENTER
100
AcDbBlockReference
  2
POST-1
 10
19.297802
 20
11.657362
 30
0.0
 41
0.03937
 42
0.03937
 43
0.03937
  0
INSERT
  5
153A
100
AcDbEntity
  8
CENTER
100
AcDbBlockReference
  2
POST-1
 10
19.297802
 20
12.393581
 30
0.0
 41
0.03937
 42
0.03937
 43
0.03937
  0
LINE
  5
153B
100
AcDbEntity
  8
CENTER
100
AcDbLine
 10
17.754612
 20
12.0
 30
0.0
 11
20.981422
 21
12.0
 31
0.0
1001
ACAD
1000
ASC_BOUNDS
1002
{
1070
    19
1005
0
1005
0
1005
0
1005
0
1005
0
1005
0
1005
0
1005
0
1005
0
1005
0
1005
0
1005
0
1005
0
1005
0
1005
0
1005
0
1005
0
1005
0
1005
0
1005
0
1005
0
1005
0
1005
0
1005
0
1005
0
1005
0
1005
0
1005
0
1005
0
1005
0
1005
0
1005
0
1005
0
1005
0
1005
0
1005
0
1005
0
1005
0
1005
0
1005
0
1005
0
1005
0
1005
0
1005
0
1005
0
1005
0
1005
0
1005
0
1005
0
1005
0
1005
0
1005
0
1005
0
1005
0
1005
0
1005
0
1005
0
1005
0
1005
0
1005
0
1005
0
1005
0
1005
0
1005
0
1005
0
1005
0
1005
0
1005
0
1005
0
1005
0
1005
0
1005
0
1005
0
1005
0
1005
0
1005
0
1005
0
1005
0
1005
0
1002
}
  0
LINE
  5
153C
100
AcDbEntity
  8
SCRATCH
 62
     4
100
AcDbLine
 10
20.02221
 20
13.27047
 30
0.0
 11
20.02221
 21
11.427954
 31
0.0
  0
LINE
  5
153D
100
AcDbEntity
  8
SCRATCH
100
AcDbLine
 10
19.74662
 20
12.622715
 30
0.0
 11
19.74662
 21
11.810118
 31
0.0
  0
LINE
  5
153E
100
AcDbEntity
  8
SCRATCH
100
AcDbLine
 10
19.98284
 20
12.622715
 30
0.0
 11
19.98284
 21
11.810118
 31
0.0
  0
LINE
  5
153F
100
AcDbEntity
  8
SCRATCH
 62
     4
100
AcDbLine
 10
18.400166
 20
13.27047
 30
0.0
 11
18.400166
 21
11.427954
 31
0.0
  0
LINE
  5
1540
100
AcDbEntity
  8
SCRATCH
 62
     4
100
AcDbLine
 10
18.400166
 20
11.427954
 30
0.0
 11
20.02221
 21
11.427954
 31
0.0
  0
LINE
  5
1541
100
AcDbEntity
  8
SCRATCH
100
AcDbLine
 10
19.98284
 20
11.810118
 30
0.0
 11
19.74662
 21
11.810118
 31
0.0
  0
LINE
  5
1542
100
AcDbEntity
  8
SCRATCH
 62
     4
100
AcDbLine
 10
18.400166
 20
13.27047
 30
0.0
 11
20.02221
 21
13.27047
 31
0.0
  0
LINE
  5
1543
100
AcDbEntity
  8
SCRATCH
100
AcDbLine
 10
19.98284
 20
12.622715
 30
0.0
 11
19.74662
 21
12.622715
 31
0.0
  0
ELLIPSE
  5
1544
100
AcDbEntity
  8
SCRATCH
 62
     4
100
AcDbEllipse
 10
19.474967
 20
12.452636
 30
0.0
 11
-0.0278387939753145
 21
-0.0278387939753145
 31
0.0
210
0.0
220
0.0
230
1.0
 40
1.0
 41
-0.7853981633974513
 42
0.7853981633974513
  0
LINE
  5
1545
100
AcDbEntity
  8
SCRATCH
 62
     4
100
AcDbLine
 10
19.435597
 20
12.452636
 30
0.0
 11
19.435597
 21
12.716415
 31
0.0
  0
ELLIPSE
  5
1546
100
AcDbEntity
  8
SCRATCH
 62
     4
100
AcDbEllipse
 10
19.474967
 20
12.716415
 30
0.0
 11
-0.0278387939753145
 21
-0.0278387939753145
 31
0.0
210
0.0
220
0.0
230
1.0
 40
1.0
 41
-2.356194490192342
 42
-0.7853981633974513
  0
LINE
  5
1547
100
AcDbEntity
  8
SCRATCH
 62
     4
100
AcDbLine
 10
19.474967
 20
12.755785
 30
0.0
 11
19.569455
 21
12.755785
 31
0.0
  0
ELLIPSE
  5
1548
100
AcDbEntity
  8
SCRATCH
 62
     4
100
AcDbEllipse
 10
19.569455
 20
12.716415
 30
0.0
 11
-0.0278387939753145
 21
-0.0278387939753145
 31
0.0
210
0.0
220
0.0
230
1.0
 40
1.0
 41
2.356194490192342
 42
3.926990816987619
  0
LINE
  5
1549
100
AcDbEntity
  8
SCRATCH
 62
     4
100
AcDbLine
 10
19.608825
 20
12.716415
 30
0.0
 11
19.608825
 21
12.452636
 31
0.0
  0
ELLIPSE
  5
154A
100
AcDbEntity
  8
SCRATCH
 62
     4
100
AcDbEllipse
 10
19.569455
 20
12.452636
 30
0.0
 11
-0.0278387939753145
 21
-0.0278387939753145
 31
0.0
210
0.0
220
0.0
230
1.0
 40
1.0
 41
0.7853981633974513
 42
2.356194490192342
  0
LINE
  5
154B
100
AcDbEntity
  8
SCRATCH
 62
     4
100
AcDbLine
 10
19.569455
 20
12.413266
 30
0.0
 11
19.474967
 21
12.413266
 31
0.0
  0
ELLIPSE
  5
154C
100
AcDbEntity
  8
SCRATCH
 62
     4
100
AcDbEllipse
 10
19.474967
 20
11.716417
 30
0.0
 11
-0.0278387939753145
 21
-0.0278387939753145
 31
0.0
210
0.0
220
0.0
230
1.0
 40
1.0
 41
-0.7853981633974513
 42
0.7853981633974513
  0
LINE
  5
154D
100
AcDbEntity
  8
SCRATCH
 62
     4
100
AcDbLine
 10
19.435597
 20
11.716417
 30
0.0
 11
19.435597
 21
11.980196
 31
0.0
  0
ELLIPSE
  5
154E
100
AcDbEntity
  8
SCRATCH
 62
     4
100
AcDbEllipse
 10
19.474967
 20
11.980196
 30
0.0
 11
-0.0278387939753145
 21
-0.0278387939753145
 31
0.0
210
0.0
220
0.0
230
1.0
 40
1.0
 41
-2.356194490192342
 42
-0.7853981633974513
  0
LINE
  5
154F
100
AcDbEntity
  8
SCRATCH
 62
     4
100
AcDbLine
 10
19.474967
 20
12.019566
 30
0.0
 11
19.569455
 21
12.019566
 31
0.0
  0
ELLIPSE
  5
1550
100
AcDbEntity
  8
SCRATCH
 62
     4
100
AcDbEllipse
 10
19.569455
 20
11.980196
 30
0.0
 11
-0.0278387939753145
 21
-0.0278387939753145
 31
0.0
210
0.0
220
0.0
230
1.0
 40
1.0
 41
2.356194490192342
 42
3.926990816987619
  0
LINE
  5
1551
100
AcDbEntity
  8
SCRATCH
 62
     4
100
AcDbLine
 10
19.608825
 20
11.980196
 30
0.0
 11
19.608825
 21
11.716417
 31
0.0
  0
ELLIPSE
  5
1552
100
AcDbEntity
  8
SCRATCH
 62
     4
100
AcDbEllipse
 10
19.569455
 20
11.716417
 30
0.0
 11
-0.0278387939753145
 21
-0.0278387939753145
 31
0.0
210
0.0
220
0.0
230
1.0
 40
1.0
 41
0.7853981633974513
 42
2.356194490192342
  0
LINE
  5
1553
100
AcDbEntity
  8
SCRATCH
 62
     4
100
AcDbLine
 10
19.569455
 20
11.677047
 30
0.0
 11
19.474967
 21
11.677047
 31
0.0
  0
LINE
  5
1554
100
AcDbEntity
  8
SCRATCH
100
AcDbLine
 10
19.687565
 20
12.393581
 30
0.0
 11
19.687565
 21
12.77547
 31
0.0
  0
LINE
  5
1555
100
AcDbEntity
  8
SCRATCH
100
AcDbLine
 10
19.687565
 20
12.77547
 30
0.0
 11
19.297802
 21
12.77547
 31
0.0
  0
LINE
  5
1556
100
AcDbEntity
  8
SCRATCH
100
AcDbLine
 10
19.297802
 20
12.77547
 30
0.0
 11
19.297802
 21
12.393581
 31
0.0
  0
LINE
  5
1557
100
AcDbEntity
  8
SCRATCH
100
AcDbLine
 10
19.297802
 20
12.393581
 30
0.0
 11
19.687565
 21
12.393581
 31
0.0
  0
LINE
  5
1558
100
AcDbEntity
  8
SCRATCH
100
AcDbLine
 10
19.70725
 20
12.373896
 30
0.0
 11
19.70725
 21
12.795155
 31
0.0
  0
LINE
  5
1559
100
AcDbEntity
  8
SCRATCH
100
AcDbLine
 10
19.70725
 20
12.795155
 30
0.0
 11
19.278117
 21
12.795155
 31
0.0
  0
LINE
  5
155A
100
AcDbEntity
  8
SCRATCH
100
AcDbLine
 10
19.278117
 20
12.795155
 30
0.0
 11
19.278117
 21
12.373896
 31
0.0
  0
LINE
  5
155B
100
AcDbEntity
  8
SCRATCH
100
AcDbLine
 10
19.278117
 20
12.373896
 30
0.0
 11
19.70725
 21
12.373896
 31
0.0
  0
INSERT
  5
155C
100
AcDbEntity
  8
SCRATCH
100
AcDbBlockReference
  2
*X16
 10
15.109938
 20
9.407813
 30
0.0
 41
0.03937
 42
0.03937
 43
0.03937
1001
ACAD
1000
HATCH
1002
{
1070
    19
1000
ANSI31
1040
10.0
1040
0.0
1000
ASC_BOUNDS
1070
     1
1070
     2
1070
     2
1005
0
1005
0
1000
ASC_SEEDPOINT
1011
10.458498
1021
8.444624
1031
0.0
1002
}
  0
LINE
  5
155D
100
AcDbEntity
  8
SCRATCH
100
AcDbLine
 10
19.297802
 20
12.039251
 30
0.0
 11
19.687565
 21
12.039251
 31
0.0
  0
LINE
  5
155E
100
AcDbEntity
  8
SCRATCH
100
AcDbLine
 10
19.687565
 20
12.039251
 30
0.0
 11
19.687565
 21
11.657362
 31
0.0
  0
LINE
  5
155F
100
AcDbEntity
  8
SCRATCH
100
AcDbLine
 10
19.687565
 20
11.657362
 30
0.0
 11
19.297802
 21
11.657362
 31
0.0
  0
LINE
  5
1560
100
AcDbEntity
  8
SCRATCH
100
AcDbLine
 10
19.297802
 20
11.657362
 30
0.0
 11
19.297802
 21
12.039251
 31
0.0
  0
LINE
  5
1561
100
AcDbEntity
  8
SCRATCH
100
AcDbLine
 10
19.278117
 20
12.058936
 30
0.0
 11
19.70725
 21
12.058936
 31
0.0
  0
LINE
  5
1562
100
AcDbEntity
  8
SCRATCH
100
AcDbLine
 10
19.70725
 20
12.058936
 30
0.0
 11
19.70725
 21
11.637677
 31
0.0
  0
LINE
  5
1563
100
AcDbEntity
  8
SCRATCH
100
AcDbLine
 10
19.70725
 20
11.637677
 30
0.0
 11
19.278117
 21
11.637677
 31
0.0
  0
LINE
  5
1564
100
AcDbEntity
  8
SCRATCH
100
AcDbLine
 10
19.278117
 20
11.637677
 30
0.0
 11
19.278117
 21
12.058936
 31
0.0
  0
INSERT
  5
1565
100
AcDbEntity
  8
SCRATCH
100
AcDbBlockReference
  2
*X17
 10
15.109938
 20
9.407813
 30
0.0
 41
0.03937
 42
0.03937
 43
0.03937
1001
ACAD
1000
HATCH
1002
{
1070
    19
1000
ANSI31
1040
10.0
1040
0.0
1000
ASC_BOUNDS
1070
     1
1070
     2
1070
     2
1005
0
1005
0
1000
ASC_SEEDPOINT
1011
10.458498
1021
8.444624
1031
0.0
1002
}
  0
POLYLINE
  5
1566
100
AcDbEntity
  8
SCRATCH
100
AcDb2dPolyline
 66
     1
 10
0.0
 20
0.0
 30
0.0
 70
     1
  0
VERTEX
  5
1567
100
AcDbEntity
  8
SCRATCH
100
AcDbVertex
100
AcDb2dVertex
 10
18.616701
 20
11.479135
 30
0.0
  0
VERTEX
  5
1568
100
AcDbEntity
  8
SCRATCH
100
AcDbVertex
100
AcDb2dVertex
 10
18.616701
 20
11.703544
 30
0.0
  0
VERTEX
  5
1569
100
AcDbEntity
  8
SCRATCH
100
AcDbVertex
100
AcDb2dVertex
 10
18.943472
 20
11.703544
 30
0.0
  0
VERTEX
  5
156A
100
AcDbEntity
  8
SCRATCH
100
AcDbVertex
100
AcDb2dVertex
 10
18.943472
 20
11.479135
 30
0.0
  0
SEQEND
  5
156B
100
AcDbEntity
  8
SCRATCH
  0
POLYLINE
  5
156C
100
AcDbEntity
  8
SCRATCH
100
AcDb2dPolyline
 66
     1
 10
0.0
 20
0.0
 30
0.0
 70
     1
  0
VERTEX
  5
156D
100
AcDbEntity
  8
SCRATCH
100
AcDbVertex
100
AcDb2dVertex
 10
18.616701
 20
11.73504
 30
0.0
  0
VERTEX
  5
156E
100
AcDbEntity
  8
SCRATCH
100
AcDbVertex
100
AcDb2dVertex
 10
18.616701
 20
11.959449
 30
0.0
  0
VERTEX
  5
156F
100
AcDbEntity
  8
SCRATCH
100
AcDbVertex
100
AcDb2dVertex
 10
18.943472
 20
11.959449
 30
0.0
  0
VERTEX
  5
1570
100
AcDbEntity
  8
SCRATCH
100
AcDbVertex
100
AcDb2dVertex
 10
18.943472
 20
11.73504
 30
0.0
  0
SEQEND
  5
1571
100
AcDbEntity
  8
SCRATCH
  0
POLYLINE
  5
1572
100
AcDbEntity
  8
SCRATCH
100
AcDb2dPolyline
 66
     1
 10
0.0
 20
0.0
 30
0.0
 70
     1
  0
VERTEX
  5
1573
100
AcDbEntity
  8
SCRATCH
100
AcDbVertex
100
AcDb2dVertex
 10
18.616701
 20
11.990945
 30
0.0
  0
VERTEX
  5
1574
100
AcDbEntity
  8
SCRATCH
100
AcDbVertex
100
AcDb2dVertex
 10
18.616701
 20
12.215354
 30
0.0
  0
VERTEX
  5
1575
100
AcDbEntity
  8
SCRATCH
100
AcDbVertex
100
AcDb2dVertex
 10
18.943472
 20
12.215354
 30
0.0
  0
VERTEX
  5
1576
100
AcDbEntity
  8
SCRATCH
100
AcDbVertex
100
AcDb2dVertex
 10
18.943472
 20
11.990945
 30
0.0
  0
SEQEND
  5
1577
100
AcDbEntity
  8
SCRATCH
  0
POLYLINE
  5
1578
100
AcDbEntity
  8
SCRATCH
100
AcDb2dPolyline
 66
     1
 10
0.0
 20
0.0
 30
0.0
 70
     1
  0
VERTEX
  5
1579
100
AcDbEntity
  8
SCRATCH
100
AcDbVertex
100
AcDb2dVertex
 10
18.616701
 20
12.24685
 30
0.0
  0
VERTEX
  5
157A
100
AcDbEntity
  8
SCRATCH
100
AcDbVertex
100
AcDb2dVertex
 10
18.616701
 20
12.471259
 30
0.0
  0
VERTEX
  5
157B
100
AcDbEntity
  8
SCRATCH
100
AcDbVertex
100
AcDb2dVertex
 10
18.943472
 20
12.471259
 30
0.0
  0
VERTEX
  5
157C
100
AcDbEntity
  8
SCRATCH
100
AcDbVertex
100
AcDb2dVertex
 10
18.943472
 20
12.24685
 30
0.0
  0
SEQEND
  5
157D
100
AcDbEntity
  8
SCRATCH
  0
POLYLINE
  5
157E
100
AcDbEntity
  8
SCRATCH
100
AcDb2dPolyline
 66
     1
 10
0.0
 20
0.0
 30
0.0
 70
     1
  0
VERTEX
  5
157F
100
AcDbEntity
  8
SCRATCH
100
AcDbVertex
100
AcDb2dVertex
 10
18.616701
 20
12.502755
 30
0.0
  0
VERTEX
  5
1580
100
AcDbEntity
  8
SCRATCH
100
AcDbVertex
100
AcDb2dVertex
 10
18.616701
 20
12.727164
 30
0.0
  0
VERTEX
  5
1581
100
AcDbEntity
  8
SCRATCH
100
AcDbVertex
100
AcDb2dVertex
 10
18.943472
 20
12.727164
 30
0.0
  0
VERTEX
  5
1582
100
AcDbEntity
  8
SCRATCH
100
AcDbVertex
100
AcDb2dVertex
 10
18.943472
 20
12.502755
 30
0.0
  0
SEQEND
  5
1583
100
AcDbEntity
  8
SCRATCH
  0
POLYLINE
  5
1584
100
AcDbEntity
  8
SCRATCH
100
AcDb2dPolyline
 66
     1
 10
0.0
 20
0.0
 30
0.0
 70
     1
  0
VERTEX
  5
1585
100
AcDbEntity
  8
SCRATCH
100
AcDbVertex
100
AcDb2dVertex
 10
18.616701
 20
12.75866
 30
0.0
  0
VERTEX
  5
1586
100
AcDbEntity
  8
SCRATCH
100
AcDbVertex
100
AcDb2dVertex
 10
18.616701
 20
12.983069
 30
0.0
  0
VERTEX
  5
1587
100
AcDbEntity
  8
SCRATCH
100
AcDbVertex
100
AcDb2dVertex
 10
18.943472
 20
12.983069
 30
0.0
  0
VERTEX
  5
1588
100
AcDbEntity
  8
SCRATCH
100
AcDbVertex
100
AcDb2dVertex
 10
18.943472
 20
12.75866
 30
0.0
  0
SEQEND
  5
1589
100
AcDbEntity
  8
SCRATCH
  0
POLYLINE
  5
158A
100
AcDbEntity
  8
SCRATCH
100
AcDb2dPolyline
 66
     1
 10
0.0
 20
0.0
 30
0.0
 70
     1
  0
VERTEX
  5
158B
100
AcDbEntity
  8
SCRATCH
100
AcDbVertex
100
AcDb2dVertex
 10
18.616701
 20
13.014565
 30
0.0
  0
VERTEX
  5
158C
100
AcDbEntity
  8
SCRATCH
100
AcDbVertex
100
AcDb2dVertex
 10
18.616701
 20
13.238974
 30
0.0
  0
VERTEX
  5
158D
100
AcDbEntity
  8
SCRATCH
100
AcDbVertex
100
AcDb2dVertex
 10
18.943472
 20
13.238974
 30
0.0
  0
VERTEX
  5
158E
100
AcDbEntity
  8
SCRATCH
100
AcDbVertex
100
AcDb2dVertex
 10
18.943472
 20
13.014565
 30
0.0
  0
SEQEND
  5
158F
100
AcDbEntity
  8
SCRATCH
  0
INSERT
  5
1590
100
AcDbEntity
  8
SCRATCH
100
AcDbBlockReference
  2
A$C23D
 10
18.620227
 20
11.490858
 30
0.0
 41
0.03937
 42
0.03937
 43
0.03937
 50
270.0
  0
INSERT
  5
1591
100
AcDbEntity
  8
SCRATCH
100
AcDbBlockReference
  2
A$C23D
 10
18.620227
 20
11.746763
 30
0.0
 41
0.03937
 42
0.03937
 43
0.03937
 50
270.0
  0
INSERT
  5
1592
100
AcDbEntity
  8
SCRATCH
100
AcDbBlockReference
  2
A$C23D
 10
18.620227
 20
12.002668
 30
0.0
 41
0.03937
 42
0.03937
 43
0.03937
 50
270.0
  0
INSERT
  5
1593
100
AcDbEntity
  8
SCRATCH
100
AcDbBlockReference
  2
A$C23D
 10
18.620227
 20
12.258573
 30
0.0
 41
0.03937
 42
0.03937
 43
0.03937
 50
270.0
  0
INSERT
  5
1594
100
AcDbEntity
  8
SCRATCH
100
AcDbBlockReference
  2
A$C23D
 10
18.620227
 20
12.514478
 30
0.0
 41
0.03937
 42
0.03937
 43
0.03937
 50
270.0
  0
INSERT
  5
1595
100
AcDbEntity
  8
SCRATCH
100
AcDbBlockReference
  2
A$C23D
 10
18.620227
 20
12.770383
 30
0.0
 41
0.03937
 42
0.03937
 43
0.03937
 50
270.0
  0
INSERT
  5
1596
100
AcDbEntity
  8
SCRATCH
100
AcDbBlockReference
  2
A$C23D
 10
18.620227
 20
13.026288
 30
0.0
 41
0.03937
 42
0.03937
 43
0.03937
 50
270.0
  0
TEXT
  5
1597
100
AcDbEntity
  8
TEXT
  6
CONTINUOUS
100
AcDbText
 10
19.179175
 20
13.03205
 30
0.0
 40
0.084291
  1
top side
100
AcDbText
  0
INSERT
  5
1598
100
AcDbEntity
  8
CENTER
100
AcDbBlockReference
  2
POST-1
 10
9.191454
 20
11.657362
 30
0.0
 41
-0.03937
 42
0.03937
 43
0.03937
  0
INSERT
  5
1599
100
AcDbEntity
  8
CENTER
100
AcDbBlockReference
  2
POST-1
 10
9.191454
 20
12.393581
 30
0.0
 41
-0.03937
 42
0.03937
 43
0.03937
  0
LINE
  5
159A
100
AcDbEntity
  8
CENTER
100
AcDbLine
 10
10.734643
 20
12.0
 30
0.0
 11
7.507833
 21
12.0
 31
0.0
1001
ACAD
1000
ASC_BOUNDS
1002
{
1070
    19
1005
0
1005
0
1005
0
1005
0
1005
0
1005
0
1005
0
1005
0
1005
0
1005
0
1005
0
1005
0
1005
0
1005
0
1005
0
1005
0
1005
0
1005
0
1005
0
1005
0
1005
0
1005
0
1005
0
1005
0
1005
0
1005
0
1005
0
1005
0
1005
0
1005
0
1005
0
1005
0
1005
0
1005
0
1005
0
1005
0
1005
0
1005
0
1005
0
1005
0
1005
0
1005
0
1005
0
1005
0
1005
0
1005
0
1005
0
1005
0
1005
0
1005
0
1005
0
1005
0
1005
0
1005
0
1005
0
1005
0
1005
0
1005
0
1005
0
1005
0
1005
0
1005
0
1005
0
1005
0
1005
0
1005
0
1005
0
1005
0
1005
0
1005
0
1005
0
1005
0
1005
0
1005
0
1005
0
1005
0
1005
0
1005
0
1005
0
1002
}
  0
LINE
  5
159B
100
AcDbEntity
  8
SCRATCH
 62
     4
100
AcDbLine
 10
8.467046
 20
13.27047
 30
0.0
 11
8.467046
 21
11.427954
 31
0.0
  0
LINE
  5
159C
100
AcDbEntity
  8
SCRATCH
100
AcDbLine
 10
8.742636
 20
12.622715
 30
0.0
 11
8.742636
 21
11.810118
 31
0.0
  0
LINE
  5
159D
100
AcDbEntity
  8
SCRATCH
100
AcDbLine
 10
8.506416
 20
12.622715
 30
0.0
 11
8.506416
 21
11.810118
 31
0.0
  0
LINE
  5
159E
100
AcDbEntity
  8
SCRATCH
 62
     4
100
AcDbLine
 10
10.08909
 20
13.27047
 30
0.0
 11
10.08909
 21
11.427954
 31
0.0
  0
LINE
  5
159F
100
AcDbEntity
  8
SCRATCH
 62
     4
100
AcDbLine
 10
10.08909
 20
11.427954
 30
0.0
 11
8.467046
 21
11.427954
 31
0.0
  0
LINE
  5
15A0
100
AcDbEntity
  8
SCRATCH
100
AcDbLine
 10
8.506416
 20
11.810118
 30
0.0
 11
8.742636
 21
11.810118
 31
0.0
  0
LINE
  5
15A1
100
AcDbEntity
  8
SCRATCH
 62
     4
100
AcDbLine
 10
10.08909
 20
13.27047
 30
0.0
 11
8.467046
 21
13.27047
 31
0.0
  0
LINE
  5
15A2
100
AcDbEntity
  8
SCRATCH
100
AcDbLine
 10
8.506416
 20
12.622715
 30
0.0
 11
8.742636
 21
12.622715
 31
0.0
  0
ELLIPSE
  5
15A3
100
AcDbEntity
  8
SCRATCH
 62
     4
100
AcDbEllipse
 10
9.014289
 20
12.452636
 30
0.0
 11
0.0278387939753145
 21
-0.0278387939753145
 31
0.0
210
0.0
220
0.0
230
-1.0
 40
1.0
 41
-0.7853981633974513
 42
0.7853981633974513
  0
LINE
  5
15A4
100
AcDbEntity
  8
SCRATCH
 62
     4
100
AcDbLine
 10
9.053659
 20
12.452636
 30
0.0
 11
9.053659
 21
12.716415
 31
0.0
  0
ELLIPSE
  5
15A5
100
AcDbEntity
  8
SCRATCH
 62
     4
100
AcDbEllipse
 10
9.014289
 20
12.716415
 30
0.0
 11
0.0278387939753145
 21
-0.0278387939753145
 31
0.0
210
0.0
220
0.0
230
-1.0
 40
1.0
 41
-2.356194490192342
 42
-0.7853981633974513
  0
LINE
  5
15A6
100
AcDbEntity
  8
SCRATCH
 62
     4
100
AcDbLine
 10
9.014289
 20
12.755785
 30
0.0
 11
8.919801
 21
12.755785
 31
0.0
  0
ELLIPSE
  5
15A7
100
AcDbEntity
  8
SCRATCH
 62
     4
100
AcDbEllipse
 10
8.919801
 20
12.716415
 30
0.0
 11
0.0278387939753145
 21
-0.0278387939753145
 31
0.0
210
0.0
220
0.0
230
-1.0
 40
1.0
 41
2.356194490192342
 42
3.926990816987574
  0
LINE
  5
15A8
100
AcDbEntity
  8
SCRATCH
 62
     4
100
AcDbLine
 10
8.880431
 20
12.716415
 30
0.0
 11
8.880431
 21
12.452636
 31
0.0
  0
ELLIPSE
  5
15A9
100
AcDbEntity
  8
SCRATCH
 62
     4
100
AcDbEllipse
 10
8.919801
 20
12.452636
 30
0.0
 11
0.0278387939753145
 21
-0.0278387939753145
 31
0.0
210
0.0
220
0.0
230
-1.0
 40
1.0
 41
0.7853981633974513
 42
2.356194490192342
  0
LINE
  5
15AA
100
AcDbEntity
  8
SCRATCH
 62
     4
100
AcDbLine
 10
8.919801
 20
12.413266
 30
0.0
 11
9.014289
 21
12.413266
 31
0.0
  0
ELLIPSE
  5
15AB
100
AcDbEntity
  8
SCRATCH
 62
     4
100
AcDbEllipse
 10
9.014289
 20
11.716417
 30
0.0
 11
0.0278387939753145
 21
-0.0278387939753145
 31
0.0
210
0.0
220
0.0
230
-1.0
 40
1.0
 41
-0.7853981633974513
 42
0.7853981633974513
  0
LINE
  5
15AC
100
AcDbEntity
  8
SCRATCH
 62
     4
100
AcDbLine
 10
9.053659
 20
11.716417
 30
0.0
 11
9.053659
 21
11.980196
 31
0.0
  0
ELLIPSE
  5
15AD
100
AcDbEntity
  8
SCRATCH
 62
     4
100
AcDbEllipse
 10
9.014289
 20
11.980196
 30
0.0
 11
0.0278387939753145
 21
-0.0278387939753145
 31
0.0
210
0.0
220
0.0
230
-1.0
 40
1.0
 41
-2.356194490192342
 42
-0.7853981633974513
  0
LINE
  5
15AE
100
AcDbEntity
  8
SCRATCH
 62
     4
100
AcDbLine
 10
9.014289
 20
12.019566
 30
0.0
 11
8.919801
 21
12.019566
 31
0.0
  0
ELLIPSE
  5
15AF
100
AcDbEntity
  8
SCRATCH
 62
     4
100
AcDbEllipse
 10
8.919801
 20
11.980196
 30
0.0
 11
0.0278387939753145
 21
-0.0278387939753145
 31
0.0
210
0.0
220
0.0
230
-1.0
 40
1.0
 41
2.356194490192342
 42
3.926990816987574
  0
LINE
  5
15B0
100
AcDbEntity
  8
SCRATCH
 62
     4
100
AcDbLine
 10
8.880431
 20
11.980196
 30
0.0
 11
8.880431
 21
11.716417
 31
0.0
  0
ELLIPSE
  5
15B1
100
AcDbEntity
  8
SCRATCH
 62
     4
100
AcDbEllipse
 10
8.919801
 20
11.716417
 30
0.0
 11
0.0278387939753145
 21
-0.0278387939753145
 31
0.0
210
0.0
220
0.0
230
-1.0
 40
1.0
 41
0.7853981633974513
 42
2.356194490192342
  0
LINE
  5
15B2
100
AcDbEntity
  8
SCRATCH
 62
     4
100
AcDbLine
 10
8.919801
 20
11.677047
 30
0.0
 11
9.014289
 21
11.677047
 31
0.0
  0
LINE
  5
15B3
100
AcDbEntity
  8
SCRATCH
100
AcDbLine
 10
8.801691
 20
12.393581
 30
0.0
 11
8.801691
 21
12.77547
 31
0.0
  0
LINE
  5
15B4
100
AcDbEntity
  8
SCRATCH
100
AcDbLine
 10
8.801691
 20
12.77547
 30
0.0
 11
9.191454
 21
12.77547
 31
0.0
  0
LINE
  5
15B5
100
AcDbEntity
  8
SCRATCH
100
AcDbLine
 10
9.191454
 20
12.77547
 30
0.0
 11
9.191454
 21
12.393581
 31
0.0
  0
LINE
  5
15B6
100
AcDbEntity
  8
SCRATCH
100
AcDbLine
 10
9.191454
 20
12.393581
 30
0.0
 11
8.801691
 21
12.393581
 31
0.0
  0
LINE
  5
15B7
100
AcDbEntity
  8
SCRATCH
100
AcDbLine
 10
8.782006
 20
12.373896
 30
0.0
 11
8.782006
 21
12.795155
 31
0.0
  0
LINE
  5
15B8
100
AcDbEntity
  8
SCRATCH
100
AcDbLine
 10
8.782006
 20
12.795155
 30
0.0
 11
9.211139
 21
12.795155
 31
0.0
  0
LINE
  5
15B9
100
AcDbEntity
  8
SCRATCH
100
AcDbLine
 10
9.211139
 20
12.795155
 30
0.0
 11
9.211139
 21
12.373896
 31
0.0
  0
LINE
  5
15BA
100
AcDbEntity
  8
SCRATCH
100
AcDbLine
 10
9.211139
 20
12.373896
 30
0.0
 11
8.782006
 21
12.373896
 31
0.0
  0
INSERT
  5
15BB
100
AcDbEntity
  8
SCRATCH
100
AcDbBlockReference
  2
*X13
 10
13.379317
 20
9.407813
 30
0.0
 41
-0.03937
 42
0.03937
 43
0.03937
1001
ACAD
1000
HATCH
1002
{
1070
    19
1000
ANSI31
1040
10.0
1040
0.0
1000
ASC_BOUNDS
1070
     1
1070
     2
1070
     2
1005
0
1005
0
1000
ASC_SEEDPOINT
1011
18.030758
1021
8.444624
1031
0.0
1002
}
  0
LINE
  5
15BC
100
AcDbEntity
  8
SCRATCH
100
AcDbLine
 10
9.191454
 20
12.039251
 30
0.0
 11
8.801691
 21
12.039251
 31
0.0
  0
LINE
  5
15BD
100
AcDbEntity
  8
SCRATCH
100
AcDbLine
 10
8.801691
 20
12.039251
 30
0.0
 11
8.801691
 21
11.657362
 31
0.0
  0
LINE
  5
15BE
100
AcDbEntity
  8
SCRATCH
100
AcDbLine
 10
8.801691
 20
11.657362
 30
0.0
 11
9.191454
 21
11.657362
 31
0.0
  0
LINE
  5
15BF
100
AcDbEntity
  8
SCRATCH
100
AcDbLine
 10
9.191454
 20
11.657362
 30
0.0
 11
9.191454
 21
12.039251
 31
0.0
  0
LINE
  5
15C0
100
AcDbEntity
  8
SCRATCH
100
AcDbLine
 10
9.211139
 20
12.058936
 30
0.0
 11
8.782006
 21
12.058936
 31
0.0
  0
LINE
  5
15C1
100
AcDbEntity
  8
SCRATCH
100
AcDbLine
 10
8.782006
 20
12.058936
 30
0.0
 11
8.782006
 21
11.637677
 31
0.0
  0
LINE
  5
15C2
100
AcDbEntity
  8
SCRATCH
100
AcDbLine
 10
8.782006
 20
11.637677
 30
0.0
 11
9.211139
 21
11.637677
 31
0.0
  0
LINE
  5
15C3
100
AcDbEntity
  8
SCRATCH
100
AcDbLine
 10
9.211139
 20
11.637677
 30
0.0
 11
9.211139
 21
12.058936
 31
0.0
  0
INSERT
  5
15C4
100
AcDbEntity
  8
SCRATCH
100
AcDbBlockReference
  2
*X14
 10
13.379317
 20
9.407813
 30
0.0
 41
-0.03937
 42
0.03937
 43
0.03937
1001
ACAD
1000
HATCH
1002
{
1070
    19
1000
ANSI31
1040
10.0
1040
0.0
1000
ASC_BOUNDS
1070
     1
1070
     2
1070
     2
1005
0
1005
0
1000
ASC_SEEDPOINT
1011
18.030758
1021
8.444624
1031
0.0
1002
}
  0
POLYLINE
  5
15C5
100
AcDbEntity
  8
SCRATCH
100
AcDb2dPolyline
 66
     1
 10
0.0
 20
0.0
 30
0.0
 70
     1
  0
VERTEX
  5
15C6
100
AcDbEntity
  8
SCRATCH
100
AcDbVertex
100
AcDb2dVertex
 10
9.872555
 20
13.219289
 30
0.0
  0
VERTEX
  5
15C7
100
AcDbEntity
  8
SCRATCH
100
AcDbVertex
100
AcDb2dVertex
 10
9.872555
 20
12.99488
 30
0.0
  0
VERTEX
  5
15C8
100
AcDbEntity
  8
SCRATCH
100
AcDbVertex
100
AcDb2dVertex
 10
9.545784
 20
12.99488
 30
0.0
  0
VERTEX
  5
15C9
100
AcDbEntity
  8
SCRATCH
100
AcDbVertex
100
AcDb2dVertex
 10
9.545784
 20
13.219289
 30
0.0
  0
SEQEND
  5
15CA
100
AcDbEntity
  8
SCRATCH
  0
POLYLINE
  5
15CB
100
AcDbEntity
  8
SCRATCH
100
AcDb2dPolyline
 66
     1
 10
0.0
 20
0.0
 30
0.0
 70
     1
  0
VERTEX
  5
15CC
100
AcDbEntity
  8
SCRATCH
100
AcDbVertex
100
AcDb2dVertex
 10
9.872555
 20
12.963384
 30
0.0
  0
VERTEX
  5
15CD
100
AcDbEntity
  8
SCRATCH
100
AcDbVertex
100
AcDb2dVertex
 10
9.872555
 20
12.738975
 30
0.0
  0
VERTEX
  5
15CE
100
AcDbEntity
  8
SCRATCH
100
AcDbVertex
100
AcDb2dVertex
 10
9.545784
 20
12.738975
 30
0.0
  0
VERTEX
  5
15CF
100
AcDbEntity
  8
SCRATCH
100
AcDbVertex
100
AcDb2dVertex
 10
9.545784
 20
12.963384
 30
0.0
  0
SEQEND
  5
15D0
100
AcDbEntity
  8
SCRATCH
  0
POLYLINE
  5
15D1
100
AcDbEntity
  8
SCRATCH
100
AcDb2dPolyline
 66
     1
 10
0.0
 20
0.0
 30
0.0
 70
     1
  0
VERTEX
  5
15D2
100
AcDbEntity
  8
SCRATCH
100
AcDbVertex
100
AcDb2dVertex
 10
9.872555
 20
12.707479
 30
0.0
  0
VERTEX
  5
15D3
100
AcDbEntity
  8
SCRATCH
100
AcDbVertex
100
AcDb2dVertex
 10
9.872555
 20
12.48307
 30
0.0
  0
VERTEX
  5
15D4
100
AcDbEntity
  8
SCRATCH
100
AcDbVertex
100
AcDb2dVertex
 10
9.545784
 20
12.48307
 30
0.0
  0
VERTEX
  5
15D5
100
AcDbEntity
  8
SCRATCH
100
AcDbVertex
100
AcDb2dVertex
 10
9.545784
 20
12.707479
 30
0.0
  0
SEQEND
  5
15D6
100
AcDbEntity
  8
SCRATCH
  0
POLYLINE
  5
15D7
100
AcDbEntity
  8
SCRATCH
100
AcDb2dPolyline
 66
     1
 10
0.0
 20
0.0
 30
0.0
 70
     1
  0
VERTEX
  5
15D8
100
AcDbEntity
  8
SCRATCH
100
AcDbVertex
100
AcDb2dVertex
 10
9.872555
 20
12.451574
 30
0.0
  0
VERTEX
  5
15D9
100
AcDbEntity
  8
SCRATCH
100
AcDbVertex
100
AcDb2dVertex
 10
9.872555
 20
12.227165
 30
0.0
  0
VERTEX
  5
15DA
100
AcDbEntity
  8
SCRATCH
100
AcDbVertex
100
AcDb2dVertex
 10
9.545784
 20
12.227165
 30
0.0
  0
VERTEX
  5
15DB
100
AcDbEntity
  8
SCRATCH
100
AcDbVertex
100
AcDb2dVertex
 10
9.545784
 20
12.451574
 30
0.0
  0
SEQEND
  5
15DC
100
AcDbEntity
  8
SCRATCH
  0
POLYLINE
  5
15DD
100
AcDbEntity
  8
SCRATCH
100
AcDb2dPolyline
 66
     1
 10
0.0
 20
0.0
 30
0.0
 70
     1
  0
VERTEX
  5
15DE
100
AcDbEntity
  8
SCRATCH
100
AcDbVertex
100
AcDb2dVertex
 10
9.872555
 20
12.195669
 30
0.0
  0
VERTEX
  5
15DF
100
AcDbEntity
  8
SCRATCH
100
AcDbVertex
100
AcDb2dVertex
 10
9.872555
 20
11.97126
 30
0.0
  0
VERTEX
  5
15E0
100
AcDbEntity
  8
SCRATCH
100
AcDbVertex
100
AcDb2dVertex
 10
9.545784
 20
11.97126
 30
0.0
  0
VERTEX
  5
15E1
100
AcDbEntity
  8
SCRATCH
100
AcDbVertex
100
AcDb2dVertex
 10
9.545784
 20
12.195669
 30
0.0
  0
SEQEND
  5
15E2
100
AcDbEntity
  8
SCRATCH
  0
POLYLINE
  5
15E3
100
AcDbEntity
  8
SCRATCH
100
AcDb2dPolyline
 66
     1
 10
0.0
 20
0.0
 30
0.0
 70
     1
  0
VERTEX
  5
15E4
100
AcDbEntity
  8
SCRATCH
100
AcDbVertex
100
AcDb2dVertex
 10
9.872555
 20
11.939764
 30
0.0
  0
VERTEX
  5
15E5
100
AcDbEntity
  8
SCRATCH
100
AcDbVertex
100
AcDb2dVertex
 10
9.872555
 20
11.715355
 30
0.0
  0
VERTEX
  5
15E6
100
AcDbEntity
  8
SCRATCH
100
AcDbVertex
100
AcDb2dVertex
 10
9.545784
 20
11.715355
 30
0.0
  0
VERTEX
  5
15E7
100
AcDbEntity
  8
SCRATCH
100
AcDbVertex
100
AcDb2dVertex
 10
9.545784
 20
11.939764
 30
0.0
  0
SEQEND
  5
15E8
100
AcDbEntity
  8
SCRATCH
  0
POLYLINE
  5
15E9
100
AcDbEntity
  8
SCRATCH
100
AcDb2dPolyline
 66
     1
 10
0.0
 20
0.0
 30
0.0
 70
     1
  0
VERTEX
  5
15EA
100
AcDbEntity
  8
SCRATCH
100
AcDbVertex
100
AcDb2dVertex
 10
9.872555
 20
11.683859
 30
0.0
  0
VERTEX
  5
15EB
100
AcDbEntity
  8
SCRATCH
100
AcDbVertex
100
AcDb2dVertex
 10
9.872555
 20
11.45945
 30
0.0
  0
VERTEX
  5
15EC
100
AcDbEntity
  8
SCRATCH
100
AcDbVertex
100
AcDb2dVertex
 10
9.545784
 20
11.45945
 30
0.0
  0
VERTEX
  5
15ED
100
AcDbEntity
  8
SCRATCH
100
AcDbVertex
100
AcDb2dVertex
 10
9.545784
 20
11.683859
 30
0.0
  0
SEQEND
  5
15EE
100
AcDbEntity
  8
SCRATCH
  0
INSERT
  5
15EF
100
AcDbEntity
  8
SCRATCH
100
AcDbBlockReference
  2
A$C23D
 10
9.869028
 20
13.207565
 30
0.0
 41
0.03937
 42
0.03937
 43
0.03937
 50
90.0
  0
INSERT
  5
15F0
100
AcDbEntity
  8
SCRATCH
100
AcDbBlockReference
  2
A$C23D
 10
9.869028
 20
12.95166
 30
0.0
 41
0.03937
 42
0.03937
 43
0.03937
 50
90.0
  0
INSERT
  5
15F1
100
AcDbEntity
  8
SCRATCH
100
AcDbBlockReference
  2
A$C23D
 10
9.869028
 20
12.695755
 30
0.0
 41
0.03937
 42
0.03937
 43
0.03937
 50
90.0
  0
INSERT
  5
15F2
100
AcDbEntity
  8
SCRATCH
100
AcDbBlockReference
  2
A$C23D
 10
9.869028
 20
12.43985
 30
0.0
 41
0.03937
 42
0.03937
 43
0.03937
 50
90.0
  0
INSERT
  5
15F3
100
AcDbEntity
  8
SCRATCH
100
AcDbBlockReference
  2
A$C23D
 10
9.869028
 20
12.183945
 30
0.0
 41
0.03937
 42
0.03937
 43
0.03937
 50
90.0
  0
INSERT
  5
15F4
100
AcDbEntity
  8
SCRATCH
100
AcDbBlockReference
  2
A$C23D
 10
9.869028
 20
11.92804
 30
0.0
 41
0.03937
 42
0.03937
 43
0.03937
 50
90.0
  0
INSERT
  5
15F5
100
AcDbEntity
  8
SCRATCH
100
AcDbBlockReference
  2
A$C23D
 10
9.869028
 20
11.672135
 30
0.0
 41
0.03937
 42
0.03937
 43
0.03937
 50
90.0
  0
TEXT
  5
15F6
100
AcDbEntity
  8
TEXT
  6
CONTINUOUS
100
AcDbText
 10
9.359167
 20
13.075084
 30
0.0
 40
0.075279
  1
bottom side
 50
180.0
100
AcDbText
  0
LINE
  5
15F7
100
AcDbEntity
  8
BEAMS-B
  6
CONTINUOUS
 62
     3
100
AcDbLine
 10
14.319093
 20
4.314905
 30
0.0
 11
14.319093
 21
4.303094
 31
0.0
1001
ACAD
1000
R13OBJECT
1002
{
1005
0
1002
}
  0
LINE
  5
15F8
100
AcDbEntity
  8
BEAMS-B
  6
CONTINUOUS
 62
     3
100
AcDbLine
 10
14.31614
 20
4.303094
 30
0.0
 11
14.31614
 21
4.314905
 31
0.0
1001
ACAD
1000
R13OBJECT
1002
{
1005
511
1002
}
  0
ARC
  5
15F9
100
AcDbEntity
  8
KEVLAR
100
AcDbCircle
 10
9.423686
 20
4.868632
 30
0.0
 40
0.0469
100
AcDbArc
 50
90.0
 51
270.0
  0
ARC
  5
15FA
100
AcDbEntity
  8
KEVLAR
100
AcDbCircle
 10
9.429686
 20
4.868632
 30
0.0
 40
0.0469
100
AcDbArc
 50
270.0
 51
90.0
  0
LINE
  5
15FB
100
AcDbEntity
  8
KEVLAR
100
AcDbLine
 10
9.429686
 20
4.915532
 30
0.0
 11
9.423686
 21
4.915532
 31
0.0
  0
LINE
  5
15FC
100
AcDbEntity
  8
KEVLAR
100
AcDbLine
 10
9.429686
 20
4.821733
 30
0.0
 11
9.423686
 21
4.821733
 31
0.0
  0
LINE
  5
15FD
100
AcDbEntity
  8
KEVLAR
100
AcDbLine
 10
11.033159
 20
4.534159
 30
0.0
 11
11.027159
 21
4.534159
 31
0.0
  0
LINE
  5
15FE
100
AcDbEntity
  8
KEVLAR
100
AcDbLine
 10
11.033159
 20
4.627958
 30
0.0
 11
11.027159
 21
4.627958
 31
0.0
  0
ARC
  5
15FF
100
AcDbEntity
  8
KEVLAR
100
AcDbCircle
 10
11.033159
 20
4.581058
 30
0.0
 40
0.0469
100
AcDbArc
 50
270.0
 51
90.0
  0
ARC
  5
1600
100
AcDbEntity
  8
KEVLAR
100
AcDbCircle
 10
11.027159
 20
4.581058
 30
0.0
 40
0.0469
100
AcDbArc
 50
90.0
 51
270.0
  0
CIRCLE
  5
1601
100
AcDbEntity
  8
KEVLAR
100
AcDbCircle
 10
17.645278
 20
4.581061
 30
0.0
 40
0.0469
  0
CIRCLE
  5
1602
100
AcDbEntity
  8
KEVLAR
100
AcDbCircle
 10
19.06255
 20
4.868635
 30
0.0
 40
0.0469
  0
LINE
  5
1603
100
AcDbEntity
  8
KEVLAR
100
AcDbLine
 10
16.265447
 20
4.317858
 30
0.0
 11
17.542512
 21
4.317858
 31
0.0
1001
ACAD
1000
ASC_BOUNDS
1002
{
1070
    19
1005
0
1005
0
1002
}
  0
ARC
  5
1604
100
AcDbEntity
  8
KEVLAR
100
AcDbCircle
 10
16.186707
 20
4.317858
 30
0.0
 40
0.07874
100
AcDbArc
 50
0.0
 51
90.0
1001
ACAD
1000
ASC_BOUNDS
1002
{
1070
    19
1002
}
  0
ARC
  5
1605
100
AcDbEntity
  8
KEVLAR
100
AcDbCircle
 10
16.029227
 20
4.317858
 30
0.0
 40
0.07874
100
AcDbArc
 50
90.0
 51
180.0
1001
ACAD
1000
ASC_BOUNDS
1002
{
1070
    19
1002
}
  0
LINE
  5
1606
100
AcDbEntity
  8
KEVLAR
100
AcDbLine
 10
16.029227
 20
4.396598
 30
0.0
 11
16.186707
 21
4.396598
 31
0.0
1001
ACAD
1000
ASC_BOUNDS
1002
{
1070
    19
1002
}
  0
LINE
  5
1607
100
AcDbEntity
  8
KEVLAR
100
AcDbLine
 10
17.542512
 20
4.317858
 30
0.0
 11
18.360796
 21
4.746044
 31
0.0
  0
ARC
  5
1608
100
AcDbEntity
  8
KEVLAR
100
AcDbCircle
 10
19.608825
 20
4.882484
 30
0.0
 40
0.07874
100
AcDbArc
 50
0.0
 51
90.0
1001
ACAD
1000
ASC_BOUNDS
1002
{
1070
    19
1002
}
  0
ARC
  5
1609
100
AcDbEntity
  8
KEVLAR
100
AcDbCircle
 10
8.880431
 20
4.882484
 30
0.0
 40
0.07874
100
AcDbArc
 50
90.0
 51
180.0
1001
ACAD
1000
ASC_BOUNDS
1002
{
1070
    19
1002
}
  0
LINE
  5
160A
100
AcDbEntity
  8
KEVLAR
100
AcDbLine
 10
10.351083
 20
4.746044
 30
0.0
 11
11.092721
 21
4.317858
 31
0.0
1001
ACAD
1000
ASC_BOUNDS
1002
{
1070
    19
1002
}
  0
ARC
  5
160B
100
AcDbEntity
  8
KEVLAR
100
AcDbCircle
 10
12.606006
 20
4.317858
 30
0.0
 40
0.07874
100
AcDbArc
 50
0.0
 51
90.0
1001
ACAD
1000
ASC_BOUNDS
1002
{
1070
    19
1002
}
  0
ARC
  5
160C
100
AcDbEntity
  8
KEVLAR
100
AcDbCircle
 10
12.448526
 20
4.317858
 30
0.0
 40
0.07874
100
AcDbArc
 50
90.0
 51
180.0
1001
ACAD
1000
ASC_BOUNDS
1002
{
1070
    19
1002
}
  0
LINE
  5
160D
100
AcDbEntity
  8
KEVLAR
100
AcDbLine
 10
12.684746
 20
4.317858
 30
0.0
 11
15.950487
 21
4.317858
 31
0.0
1001
ACAD
1000
ASC_BOUNDS
1002
{
1070
    19
1005
0
1005
0
1002
}
  0
LINE
  5
160E
100
AcDbEntity
  8
KEVLAR
100
AcDbLine
 10
12.448526
 20
4.396598
 30
0.0
 11
12.606006
 21
4.396598
 31
0.0
1001
ACAD
1000
ASC_BOUNDS
1002
{
1070
    19
1002
}
  0
LINE
  5
160F
100
AcDbEntity
  8
KEVLAR
100
AcDbLine
 10
19.687565
 20
4.746044
 30
0.0
 11
18.360796
 21
4.746044
 31
0.0
1001
ACAD
1000
ASC_BOUNDS
1002
{
1070
    19
1002
}
  0
LINE
  5
1610
100
AcDbEntity
  8
KEVLAR
100
AcDbLine
 10
11.092721
 20
4.317858
 30
0.0
 11
12.369786
 21
4.317858
 31
0.0
1001
ACAD
1000
ASC_BOUNDS
1002
{
1070
    19
1002
}
  0
LINE
  5
1611
100
AcDbEntity
  8
KEVLAR
100
AcDbLine
 10
19.687565
 20
4.746044
 30
0.0
 11
19.687565
 21
4.882484
 31
0.0
1001
ACAD
1000
ASC_BOUNDS
1002
{
1070
    19
1002
}
  0
LINE
  5
1612
100
AcDbEntity
  8
KEVLAR
100
AcDbLine
 10
8.801691
 20
4.746046
 30
0.0
 11
10.351083
 21
4.746044
 31
0.0
1001
ACAD
1000
ASC_BOUNDS
1002
{
1070
    19
1002
}
  0
LINE
  5
1613
100
AcDbEntity
  8
KEVLAR
100
AcDbLine
 10
8.880431
 20
4.961224
 30
0.0
 11
19.608825
 21
4.961224
 31
0.0
1001
ACAD
1000
ASC_BOUNDS
1002
{
1070
    19
1002
}
  0
LINE
  5
1614
100
AcDbEntity
  8
KEVLAR
100
AcDbLine
 10
8.801691
 20
4.746046
 30
0.0
 11
8.801691
 21
4.882484
 31
0.0
1001
ACAD
1000
ASC_BOUNDS
1002
{
1070
    19
1002
}
  0
LINE
  5
1615
100
AcDbEntity
  8
HDI
 62
     7
100
AcDbLine
 10
19.74662
 20
4.249982
 30
0.0
 11
19.74662
 21
4.230297
 31
0.0
  0
LINE
  5
1616
100
AcDbEntity
  8
HDI
 62
     7
100
AcDbLine
 10
19.74662
 20
4.230297
 30
0.0
 11
19.779494
 21
4.230297
 31
0.0
  0
LINE
  5
1617
100
AcDbEntity
  8
HDI
 62
     7
100
AcDbLine
 10
19.779494
 20
4.230297
 30
0.0
 11
19.779494
 21
4.127935
 31
0.0
  0
LINE
  5
1618
100
AcDbEntity
  8
HDI
 62
     7
100
AcDbLine
 10
19.779494
 20
4.127935
 30
0.0
 11
19.949966
 21
4.127935
 31
0.0
  0
LINE
  5
1619
100
AcDbEntity
  8
HDI
 62
     7
100
AcDbLine
 10
19.949966
 20
4.127935
 30
0.0
 11
19.949966
 21
4.230297
 31
0.0
  0
LINE
  5
161A
100
AcDbEntity
  8
HDI
 62
     7
100
AcDbLine
 10
19.949966
 20
4.230297
 30
0.0
 11
19.98284
 21
4.230297
 31
0.0
  0
LINE
  5
161B
100
AcDbEntity
  8
HDI
 62
     7
100
AcDbLine
 10
19.98284
 20
4.230297
 30
0.0
 11
19.98284
 21
4.249982
 31
0.0
  0
LINE
  5
161C
100
AcDbEntity
  8
HDI
 62
     7
100
AcDbLine
 10
19.98284
 20
4.249982
 30
0.0
 11
19.74662
 21
4.249982
 31
0.0
  0
LINE
  5
161D
100
AcDbEntity
  8
HDI
 62
     7
100
AcDbLine
 10
19.74662
 20
4.297226
 30
0.0
 11
19.74662
 21
4.316911
 31
0.0
  0
LINE
  5
161E
100
AcDbEntity
  8
HDI
 62
     7
100
AcDbLine
 10
19.74662
 20
4.316911
 30
0.0
 11
19.779494
 21
4.316911
 31
0.0
  0
LINE
  5
161F
100
AcDbEntity
  8
HDI
 62
     7
100
AcDbLine
 10
19.779494
 20
4.316911
 30
0.0
 11
19.779494
 21
4.419273
 31
0.0
  0
LINE
  5
1620
100
AcDbEntity
  8
HDI
 62
     7
100
AcDbLine
 10
19.779494
 20
4.419273
 30
0.0
 11
19.949966
 21
4.419273
 31
0.0
  0
LINE
  5
1621
100
AcDbEntity
  8
HDI
 62
     7
100
AcDbLine
 10
19.949966
 20
4.419273
 30
0.0
 11
19.949966
 21
4.316911
 31
0.0
  0
LINE
  5
1622
100
AcDbEntity
  8
HDI
 62
     7
100
AcDbLine
 10
19.949966
 20
4.316911
 30
0.0
 11
19.98284
 21
4.316911
 31
0.0
  0
LINE
  5
1623
100
AcDbEntity
  8
HDI
 62
     7
100
AcDbLine
 10
19.98284
 20
4.316911
 30
0.0
 11
19.98284
 21
4.297226
 31
0.0
  0
LINE
  5
1624
100
AcDbEntity
  8
HDI
 62
     7
100
AcDbLine
 10
19.98284
 20
4.297226
 30
0.0
 11
19.74662
 21
4.297226
 31
0.0
  0
LINE
  5
1625
100
AcDbEntity
  8
HDI
 62
     7
100
AcDbLine
 10
19.74662
 20
4.588564
 30
0.0
 11
19.74662
 21
4.568879
 31
0.0
  0
LINE
  5
1626
100
AcDbEntity
  8
HDI
 62
     7
100
AcDbLine
 10
19.74662
 20
4.568879
 30
0.0
 11
19.779494
 21
4.568879
 31
0.0
  0
LINE
  5
1627
100
AcDbEntity
  8
HDI
 62
     7
100
AcDbLine
 10
19.779494
 20
4.568879
 30
0.0
 11
19.779494
 21
4.466517
 31
0.0
  0
LINE
  5
1628
100
AcDbEntity
  8
HDI
 62
     7
100
AcDbLine
 10
19.779494
 20
4.466517
 30
0.0
 11
19.949966
 21
4.466517
 31
0.0
  0
LINE
  5
1629
100
AcDbEntity
  8
HDI
 62
     7
100
AcDbLine
 10
19.949966
 20
4.466517
 30
0.0
 11
19.949966
 21
4.568879
 31
0.0
  0
LINE
  5
162A
100
AcDbEntity
  8
HDI
 62
     7
100
AcDbLine
 10
19.949966
 20
4.568879
 30
0.0
 11
19.98284
 21
4.568879
 31
0.0
  0
LINE
  5
162B
100
AcDbEntity
  8
HDI
 62
     7
100
AcDbLine
 10
19.98284
 20
4.568879
 30
0.0
 11
19.98284
 21
4.588564
 31
0.0
  0
LINE
  5
162C
100
AcDbEntity
  8
HDI
 62
     7
100
AcDbLine
 10
19.98284
 20
4.588564
 30
0.0
 11
19.74662
 21
4.588564
 31
0.0
  0
LINE
  5
162D
100
AcDbEntity
  8
HDI
 62
     7
100
AcDbLine
 10
19.74662
 20
4.635808
 30
0.0
 11
19.74662
 21
4.655493
 31
0.0
  0
LINE
  5
162E
100
AcDbEntity
  8
HDI
 62
     7
100
AcDbLine
 10
19.74662
 20
4.655493
 30
0.0
 11
19.779494
 21
4.655493
 31
0.0
  0
LINE
  5
162F
100
AcDbEntity
  8
HDI
 62
     7
100
AcDbLine
 10
19.779494
 20
4.655493
 30
0.0
 11
19.779494
 21
4.757855
 31
0.0
  0
LINE
  5
1630
100
AcDbEntity
  8
HDI
 62
     7
100
AcDbLine
 10
19.779494
 20
4.757855
 30
0.0
 11
19.949966
 21
4.757855
 31
0.0
  0
LINE
  5
1631
100
AcDbEntity
  8
HDI
 62
     7
100
AcDbLine
 10
19.949966
 20
4.757855
 30
0.0
 11
19.949966
 21
4.655493
 31
0.0
  0
LINE
  5
1632
100
AcDbEntity
  8
HDI
 62
     7
100
AcDbLine
 10
19.949966
 20
4.655493
 30
0.0
 11
19.98284
 21
4.655493
 31
0.0
  0
LINE
  5
1633
100
AcDbEntity
  8
HDI
 62
     7
100
AcDbLine
 10
19.98284
 20
4.655493
 30
0.0
 11
19.98284
 21
4.635808
 31
0.0
  0
LINE
  5
1634
100
AcDbEntity
  8
HDI
 62
     7
100
AcDbLine
 10
19.98284
 20
4.635808
 30
0.0
 11
19.74662
 21
4.635808
 31
0.0
  0
INSERT
  5
1635
100
AcDbEntity
  8
SECTION
 62
     1
100
AcDbBlockReference
  2
*X9
 10
-7.806559
 20
13.547339
 30
0.0
 41
0.03937
 42
0.03937
 43
-0.03937
 50
180.0
210
0.0
220
0.0
230
-1.0
1001
ACAD
1000
HATCH
1002
{
1070
    19
1000
ANSI31
1040
5.0
1040
3.141593
1000
ASC_BOUNDS
1070
     1
1070
     2
1070
     9
1005
387
1005
382
1005
388
1005
377
1005
37D
1005
378
1005
36E
1005
39D
1005
36D
1000
ASC_SEEDPOINT
1011
-47.135496
1021
66.302
1031
30.844635
1002
}
  0
INSERT
  5
1636
100
AcDbEntity
  8
SECTION
 62
     1
100
AcDbBlockReference
  2
*X8
 10
-7.806559
 20
13.547339
 30
0.0
 41
0.03937
 42
0.03937
 43
-0.03937
 50
180.0
210
0.0
220
0.0
230
-1.0
1001
ACAD
1000
HATCH
1002
{
1070
    19
1000
ANSI31
1040
5.0
1040
0.0
1000
ASC_BOUNDS
1070
     1
1070
     2
1070
    13
1005
39A
1005
395
1005
38F
1005
38A
1005
394
1005
36F
1005
39E
1005
372
1005
39B
1005
370
1005
3A0
1005
371
1005
389
1000
ASC_SEEDPOINT
1011
-47.135496
1021
66.302
1031
30.844635
1002
}
  0
LINE
  5
1637
100
AcDbEntity
  8
SECTION
 62
     1
100
AcDbLine
 10
19.687565
 20
4.746044
 30
0.0
 11
19.687565
 21
4.639761
 31
0.0
1001
ACAD
1000
ASC_BOUNDS
1002
{
1070
    19
1005
36B
1002
}
  0
LINE
  5
1638
100
AcDbEntity
  8
SECTION
 62
     1
100
AcDbLine
 10
19.581266
 20
4.67421
 30
0.0
 11
19.581266
 21
4.746044
 31
0.0
1001
ACAD
1000
ASC_BOUNDS
1002
{
1070
    19
1005
36B
1002
}
  0
LINE
  5
1639
100
AcDbEntity
  8
SECTION
 62
     1
100
AcDbLine
 10
19.463156
 20
4.746044
 30
0.0
 11
19.463156
 21
4.67421
 31
0.0
1001
ACAD
1000
ASC_BOUNDS
1002
{
1070
    19
1005
36C
1002
}
  0
LINE
  5
163A
100
AcDbEntity
  8
SECTION
 62
     1
100
AcDbLine
 10
19.317487
 20
4.746044
 30
0.0
 11
19.317487
 21
4.709643
 31
0.0
1001
ACAD
1000
ASC_BOUNDS
1002
{
1070
    19
1005
36C
1002
}
  0
LINE
  5
163B
100
AcDbEntity
  8
SECTION
 62
     1
100
AcDbLine
 10
19.297802
 20
4.639761
 30
0.0
 11
19.297802
 21
4.746044
 31
0.0
1001
ACAD
1000
ASC_BOUNDS
1002
{
1070
    19
1005
36C
1002
}
  0
LINE
  5
163C
100
AcDbEntity
  8
SECTION
 62
     1
100
AcDbLine
 10
19.396227
 20
4.709643
 30
0.0
 11
19.396227
 21
4.746044
 31
0.0
1001
ACAD
1000
ASC_BOUNDS
1002
{
1070
    19
1005
36C
1002
}
  0
LINE
  5
163D
100
AcDbEntity
  8
SECTION
 62
     1
100
AcDbLine
 10
19.482841
 20
4.639761
 30
0.0
 11
19.482841
 21
4.594092
 31
0.0
  0
LINE
  5
163E
100
AcDbEntity
  8
SECTION
 62
     1
100
AcDbLine
 10
19.561581
 20
4.594092
 30
0.0
 11
19.561581
 21
4.639761
 31
0.0
  0
LINE
  5
163F
100
AcDbEntity
  8
HDI
 62
     1
100
AcDbLine
 10
19.490111
 20
4.67421
 30
0.0
 11
19.554311
 21
4.67421
 31
0.0
  0
LINE
  5
1640
100
AcDbEntity
  8
SECTION
 62
     1
100
AcDbLine
 10
19.555
 20
4.639761
 30
0.0
 11
19.489421
 21
4.639761
 31
0.0
  0
LINE
  5
1641
100
AcDbEntity
  8
HDI
 62
     1
100
AcDbLine
 10
19.687565
 20
4.639761
 30
0.0
 11
19.561581
 21
4.639761
 31
0.0
1001
ACAD
1000
ASC_BOUNDS
1002
{
1070
    19
1005
36B
1002
}
  0
LINE
  5
1642
100
AcDbEntity
  8
HDI
 62
     1
100
AcDbLine
 10
19.561581
 20
4.64943
 30
0.0
 11
19.553057
 21
4.657304
 31
0.0
  0
LINE
  5
1643
100
AcDbEntity
  8
HDI
 62
     1
100
AcDbLine
 10
19.553057
 20
4.657304
 30
0.0
 11
19.561581
 21
4.665178
 31
0.0
  0
LINE
  5
1644
100
AcDbEntity
  8
HDI
 62
     1
100
AcDbLine
 10
19.561581
 20
4.665178
 30
0.0
 11
19.553057
 21
4.673052
 31
0.0
  0
LINE
  5
1645
100
AcDbEntity
  8
HDI
 62
     1
100
AcDbLine
 10
19.553057
 20
4.673052
 30
0.0
 11
19.554311
 21
4.67421
 31
0.0
  0
LINE
  5
1646
100
AcDbEntity
  8
HDI
 62
     1
100
AcDbLine
 10
19.555
 20
4.639761
 30
0.0
 11
19.553057
 21
4.641556
 31
0.0
  0
LINE
  5
1647
100
AcDbEntity
  8
HDI
 62
     1
100
AcDbLine
 10
19.553057
 20
4.641556
 30
0.0
 11
19.561581
 21
4.64943
 31
0.0
  0
LINE
  5
1648
100
AcDbEntity
  8
SECTION
 62
     1
100
AcDbLine
 10
19.561581
 20
4.639761
 30
0.0
 11
19.555
 21
4.639761
 31
0.0
1001
ACAD
1000
ASC_BOUNDS
1002
{
1070
    19
1005
36B
1002
}
  0
LINE
  5
1649
100
AcDbEntity
  8
HDI
 62
     1
100
AcDbLine
 10
19.554311
 20
4.67421
 30
0.0
 11
19.581266
 21
4.67421
 31
0.0
1001
ACAD
1000
ASC_BOUNDS
1002
{
1070
    19
1005
36B
1002
}
  0
LINE
  5
164A
100
AcDbEntity
  8
HDI
 62
     1
100
AcDbLine
 10
19.482841
 20
4.639761
 30
0.0
 11
19.297802
 21
4.639761
 31
0.0
1001
ACAD
1000
ASC_BOUNDS
1002
{
1070
    19
1005
36C
1002
}
  0
LINE
  5
164B
100
AcDbEntity
  8
HDI
 62
     1
100
AcDbLine
 10
19.482841
 20
4.64943
 30
0.0
 11
19.491364
 21
4.657304
 31
0.0
  0
LINE
  5
164C
100
AcDbEntity
  8
HDI
 62
     1
100
AcDbLine
 10
19.491364
 20
4.657304
 30
0.0
 11
19.482841
 21
4.665178
 31
0.0
  0
LINE
  5
164D
100
AcDbEntity
  8
HDI
 62
     1
100
AcDbLine
 10
19.482841
 20
4.665178
 30
0.0
 11
19.491364
 21
4.673052
 31
0.0
  0
LINE
  5
164E
100
AcDbEntity
  8
HDI
 62
     1
100
AcDbLine
 10
19.491364
 20
4.673052
 30
0.0
 11
19.490111
 21
4.67421
 31
0.0
  0
LINE
  5
164F
100
AcDbEntity
  8
HDI
 62
     1
100
AcDbLine
 10
19.463156
 20
4.67421
 30
0.0
 11
19.490111
 21
4.67421
 31
0.0
1001
ACAD
1000
ASC_BOUNDS
1002
{
1070
    19
1005
36C
1002
}
  0
LINE
  5
1650
100
AcDbEntity
  8
HDI
 62
     1
100
AcDbLine
 10
19.489421
 20
4.639761
 30
0.0
 11
19.491364
 21
4.641556
 31
0.0
  0
LINE
  5
1651
100
AcDbEntity
  8
HDI
 62
     1
100
AcDbLine
 10
19.491364
 20
4.641556
 30
0.0
 11
19.482841
 21
4.64943
 31
0.0
  0
LINE
  5
1652
100
AcDbEntity
  8
SECTION
 62
     1
100
AcDbLine
 10
19.489421
 20
4.639761
 30
0.0
 11
19.482841
 21
4.639761
 31
0.0
1001
ACAD
1000
ASC_BOUNDS
1002
{
1070
    19
1005
36C
1002
}
  0
LINE
  5
1653
100
AcDbEntity
  8
SECTION
 62
     1
100
AcDbLine
 10
19.317487
 20
4.709643
 30
0.0
 11
19.396227
 21
4.709643
 31
0.0
1001
ACAD
1000
ASC_BOUNDS
1002
{
1070
    19
1005
36C
1002
}
  0
LINE
  5
1654
100
AcDbEntity
  8
SECTION
 62
     1
100
AcDbLine
 10
19.581266
 20
4.746044
 30
0.0
 11
19.463156
 21
4.746044
 31
0.0
  0
LINE
  5
1655
100
AcDbEntity
  8
SECTION
 62
     1
100
AcDbLine
 10
19.581266
 20
4.746044
 30
0.0
 11
19.687565
 21
4.746044
 31
0.0
1001
ACAD
1000
ASC_BOUNDS
1002
{
1070
    19
1005
36B
1002
}
  0
LINE
  5
1656
100
AcDbEntity
  8
SECTION
 62
     1
100
AcDbLine
 10
19.396227
 20
4.746044
 30
0.0
 11
19.463156
 21
4.746044
 31
0.0
1001
ACAD
1000
ASC_BOUNDS
1002
{
1070
    19
1005
36C
1002
}
  0
LINE
  5
1657
100
AcDbEntity
  8
SECTION
 62
     1
100
AcDbLine
 10
19.317487
 20
4.746044
 30
0.0
 11
19.396227
 21
4.746044
 31
0.0
  0
LINE
  5
1658
100
AcDbEntity
  8
SECTION
 62
     1
100
AcDbLine
 10
19.297802
 20
4.746044
 30
0.0
 11
19.317487
 21
4.746044
 31
0.0
1001
ACAD
1000
ASC_BOUNDS
1002
{
1070
    19
1005
36C
1002
}
  0
LINE
  5
1659
100
AcDbEntity
  8
SECTION
 62
     1
100
AcDbLine
 10
19.482841
 20
4.594092
 30
0.0
 11
19.561581
 21
4.594092
 31
0.0
  0
LINE
  5
165A
100
AcDbEntity
  8
SECTION
100
AcDbLine
 10
19.541896
 20
4.258446
 30
0.0
 11
19.502526
 21
4.258446
 31
0.0
  0
LINE
  5
165B
100
AcDbEntity
  8
SECTION
100
AcDbLine
 10
19.561581
 20
4.258446
 30
0.0
 11
19.541896
 21
4.258446
 31
0.0
  0
LINE
  5
165C
100
AcDbEntity
  8
SECTION
100
AcDbLine
 10
19.541896
 20
4.258446
 30
0.0
 11
19.541896
 21
4.588524
 31
0.0
  0
LINE
  5
165D
100
AcDbEntity
  8
SECTION
100
AcDbLine
 10
19.541896
 20
4.588524
 30
0.0
 11
19.687565
 21
4.588524
 31
0.0
  0
LINE
  5
165E
100
AcDbEntity
  8
SECTION
100
AcDbLine
 10
19.687565
 20
4.588524
 30
0.0
 11
19.687565
 21
4.297816
 31
0.0
1001
ACAD
1000
ASC_BOUNDS
1002
{
1070
    19
1002
}
  0
LINE
  5
165F
100
AcDbEntity
  8
SECTION
100
AcDbLine
 10
19.687565
 20
4.297816
 30
0.0
 11
19.561581
 21
4.297816
 31
0.0
1001
ACAD
1000
ASC_BOUNDS
1002
{
1070
    19
1002
}
  0
LINE
  5
1660
100
AcDbEntity
  8
SECTION
100
AcDbLine
 10
19.561581
 20
4.297816
 30
0.0
 11
19.561581
 21
4.258446
 31
0.0
1001
ACAD
1000
ASC_BOUNDS
1002
{
1070
    19
1002
}
  0
INSERT
  5
1661
100
AcDbEntity
  8
SECTION
100
AcDbBlockReference
  2
*X3
 10
-8.739184
 20
11.955214
 30
0.0
 41
0.03937
 42
0.03937
 43
-0.03937
 50
180.0
210
0.0
220
0.0
230
-1.0
1001
ACAD
1000
HATCH
1002
{
1070
    19
1000
ANSI31
1040
10.0
1040
0.0
1000
ASC_BOUNDS
1070
     1
1070
     2
1070
     2
1005
134
1005
13D
1000
ASC_SEEDPOINT
1011
-265.361878
1021
-183.009481
1031
0.0
1002
}
  0
LINE
  5
1662
100
AcDbEntity
  8
SECTION
100
AcDbLine
 10
19.502526
 20
4.588524
 30
0.0
 11
19.502526
 21
4.258446
 31
0.0
  0
LINE
  5
1663
100
AcDbEntity
  8
SECTION
100
AcDbLine
 10
19.502526
 20
4.258446
 30
0.0
 11
19.482841
 21
4.258446
 31
0.0
  0
LINE
  5
1664
100
AcDbEntity
  8
SECTION
100
AcDbLine
 10
19.482841
 20
4.258446
 30
0.0
 11
19.482841
 21
4.297816
 31
0.0
1001
ACAD
1000
ASC_BOUNDS
1002
{
1070
    19
1002
}
  0
LINE
  5
1665
100
AcDbEntity
  8
SECTION
100
AcDbLine
 10
19.482841
 20
4.297816
 30
0.0
 11
19.297802
 21
4.297816
 31
0.0
1001
ACAD
1000
ASC_BOUNDS
1002
{
1070
    19
1002
}
  0
LINE
  5
1666
100
AcDbEntity
  8
SECTION
100
AcDbLine
 10
19.297802
 20
4.297816
 30
0.0
 11
19.297802
 21
4.588524
 31
0.0
  0
LINE
  5
1667
100
AcDbEntity
  8
SECTION
100
AcDbLine
 10
19.297802
 20
4.588524
 30
0.0
 11
19.502526
 21
4.588524
 31
0.0
1001
ACAD
1000
ASC_BOUNDS
1002
{
1070
    19
1002
}
  0
LINE
  5
1668
100
AcDbEntity
  8
SECTION
100
AcDbLine
 10
19.502526
 20
4.588524
 30
0.0
 11
19.541896
 21
4.588524
 31
0.0
  0
LINE
  5
1669
100
AcDbEntity
  8
HDI_AIN_12
100
AcDbLine
 10
20.02221
 20
4.297226
 30
0.0
 11
18.400166
 21
4.297226
 31
0.0
  0
LINE
  5
166A
100
AcDbEntity
  8
HDI_AIN_12
100
AcDbLine
 10
20.02221
 20
4.249982
 30
0.0
 11
18.400166
 21
4.249982
 31
0.0
  0
LINE
  5
166B
100
AcDbEntity
  8
STAYCLEAR
100
AcDbLine
 10
20.02221
 20
4.110219
 30
0.0
 11
19.74662
 21
4.110219
 31
0.0
  0
LINE
  5
166C
100
AcDbEntity
  8
STAYCLEAR
100
AcDbLine
 10
19.74662
 20
4.159431
 30
0.0
 11
18.400166
 21
4.159431
 31
0.0
  0
LINE
  5
166D
100
AcDbEntity
  8
STAYCLEAR
100
AcDbLine
 10
19.74662
 20
4.387777
 30
0.0
 11
18.400166
 21
4.387777
 31
0.0
  0
LINE
  5
166E
100
AcDbEntity
  8
HDI_AIN_12
100
AcDbLine
 10
18.400166
 20
4.297226
 30
0.0
 11
18.400166
 21
4.249982
 31
0.0
  0
LINE
  5
166F
100
AcDbEntity
  8
STAYCLEAR
100
AcDbLine
 10
18.400166
 20
4.159431
 30
0.0
 11
18.400166
 21
4.240413
 31
0.0
  0
LINE
  5
1670
100
AcDbEntity
  8
STAYCLEAR
100
AcDbLine
 10
18.400166
 20
4.387777
 30
0.0
 11
18.400166
 21
4.306796
 31
0.0
  0
LINE
  5
1671
100
AcDbEntity
  8
STAYCLEAR
100
AcDbLine
 10
19.74662
 20
4.110219
 30
0.0
 11
19.74662
 21
4.159431
 31
0.0
  0
LINE
  5
1672
100
AcDbEntity
  8
STAYCLEAR
100
AcDbLine
 10
19.74662
 20
4.43699
 30
0.0
 11
19.74662
 21
4.387777
 31
0.0
  0
LINE
  5
1673
100
AcDbEntity
  8
STAYCLEAR
100
AcDbLine
 10
20.02221
 20
4.110219
 30
0.0
 11
20.02221
 21
4.238629
 31
0.0
  0
LINE
  5
1674
100
AcDbEntity
  8
HDI_AIN_12
100
AcDbLine
 10
20.02221
 20
4.297226
 30
0.0
 11
20.02221
 21
4.249982
 31
0.0
  0
LINE
  5
1675
100
AcDbEntity
  8
STAYCLEAR
100
AcDbLine
 10
20.02221
 20
4.43699
 30
0.0
 11
20.02221
 21
4.306796
 31
0.0
  0
LINE
  5
1676
100
AcDbEntity
  8
STAYCLEAR
100
AcDbLine
 10
20.02221
 20
4.43699
 30
0.0
 11
19.74662
 21
4.43699
 31
0.0
  0
LINE
  5
1677
100
AcDbEntity
  8
HDI_AIN_12
100
AcDbLine
 10
20.02221
 20
4.635808
 30
0.0
 11
18.400166
 21
4.635808
 31
0.0
  0
LINE
  5
1678
100
AcDbEntity
  8
HDI_AIN_12
100
AcDbLine
 10
20.02221
 20
4.588564
 30
0.0
 11
18.400166
 21
4.588564
 31
0.0
  0
LINE
  5
1679
100
AcDbEntity
  8
STAYCLEAR
100
AcDbLine
 10
20.02221
 20
4.448801
 30
0.0
 11
19.74662
 21
4.448801
 31
0.0
  0
LINE
  5
167A
100
AcDbEntity
  8
STAYCLEAR
100
AcDbLine
 10
19.74662
 20
4.498013
 30
0.0
 11
18.400166
 21
4.498013
 31
0.0
  0
LINE
  5
167B
100
AcDbEntity
  8
STAYCLEAR
100
AcDbLine
 10
19.74662
 20
4.726359
 30
0.0
 11
18.400166
 21
4.726359
 31
0.0
  0
LINE
  5
167C
100
AcDbEntity
  8
HDI_AIN_12
100
AcDbLine
 10
18.400166
 20
4.635808
 30
0.0
 11
18.400166
 21
4.588564
 31
0.0
  0
LINE
  5
167D
100
AcDbEntity
  8
STAYCLEAR
100
AcDbLine
 10
18.400166
 20
4.498013
 30
0.0
 11
18.400166
 21
4.578995
 31
0.0
  0
LINE
  5
167E
100
AcDbEntity
  8
STAYCLEAR
100
AcDbLine
 10
18.400166
 20
4.726359
 30
0.0
 11
18.400166
 21
4.645378
 31
0.0
  0
LINE
  5
167F
100
AcDbEntity
  8
STAYCLEAR
100
AcDbLine
 10
19.74662
 20
4.448801
 30
0.0
 11
19.74662
 21
4.498013
 31
0.0
  0
LINE
  5
1680
100
AcDbEntity
  8
STAYCLEAR
100
AcDbLine
 10
19.74662
 20
4.775572
 30
0.0
 11
19.74662
 21
4.726359
 31
0.0
  0
LINE
  5
1681
100
AcDbEntity
  8
STAYCLEAR
100
AcDbLine
 10
20.02221
 20
4.448801
 30
0.0
 11
20.02221
 21
4.577211
 31
0.0
  0
LINE
  5
1682
100
AcDbEntity
  8
HDI_AIN_12
100
AcDbLine
 10
20.02221
 20
4.635808
 30
0.0
 11
20.02221
 21
4.588564
 31
0.0
  0
LINE
  5
1683
100
AcDbEntity
  8
STAYCLEAR
100
AcDbLine
 10
20.02221
 20
4.775572
 30
0.0
 11
20.02221
 21
4.645378
 31
0.0
  0
LINE
  5
1684
100
AcDbEntity
  8
STAYCLEAR
100
AcDbLine
 10
20.02221
 20
4.775572
 30
0.0
 11
19.74662
 21
4.775572
 31
0.0
  0
LINE
  5
1685
100
AcDbEntity
  8
COOLING
100
AcDbLine
 10
17.896842
 20
4.027504
 30
0.0
 11
17.896842
 21
4.039315
 31
0.0
  0
LINE
  5
1686
100
AcDbEntity
  8
COOLING
100
AcDbLine
 10
17.896842
 20
4.039315
 30
0.0
 11
16.227554
 21
4.039315
 31
0.0
  0
LINE
  5
1687
100
AcDbEntity
  8
COOLING
100
AcDbLine
 10
16.227554
 20
4.027504
 30
0.0
 11
17.896842
 21
4.027504
 31
0.0
  0
LINE
  5
1688
100
AcDbEntity
  8
COOLING
100
AcDbLine
 10
16.227554
 20
4.039315
 30
0.0
 11
16.227554
 21
4.027504
 31
0.0
  0
LINE
  5
1689
100
AcDbEntity
  8
COOLING
100
AcDbLine
 10
16.224601
 20
4.027504
 30
0.0
 11
16.224601
 21
4.039315
 31
0.0
  0
LINE
  5
168A
100
AcDbEntity
  8
COOLING
100
AcDbLine
 10
16.224601
 20
4.039315
 30
0.0
 11
14.555313
 21
4.039315
 31
0.0
  0
LINE
  5
168B
100
AcDbEntity
  8
COOLING
100
AcDbLine
 10
14.555313
 20
4.027504
 30
0.0
 11
16.224601
 21
4.027504
 31
0.0
  0
LINE
  5
168C
100
AcDbEntity
  8
COOLING
100
AcDbLine
 10
14.555313
 20
4.039315
 30
0.0
 11
14.555313
 21
4.027504
 31
0.0
  0
LINE
  5
168D
100
AcDbEntity
  8
COOLING
100
AcDbLine
 10
16.106491
 20
4.303094
 30
0.0
 11
16.106491
 21
4.314905
 31
0.0
  0
LINE
  5
168E
100
AcDbEntity
  8
COOLING
100
AcDbLine
 10
16.106491
 20
4.314905
 30
0.0
 11
14.319093
 21
4.314905
 31
0.0
  0
LINE
  5
168F
100
AcDbEntity
  8
COOLING
100
AcDbLine
 10
14.319093
 20
4.303094
 30
0.0
 11
16.106491
 21
4.303094
 31
0.0
  0
LINE
  5
1690
100
AcDbEntity
  8
COOLING
100
AcDbLine
 10
14.319093
 20
4.314905
 30
0.0
 11
14.319093
 21
4.303094
 31
0.0
  0
LINE
  5
1691
100
AcDbEntity
  8
COOLING
100
AcDbLine
 10
17.896842
 20
4.303094
 30
0.0
 11
17.896842
 21
4.314905
 31
0.0
  0
LINE
  5
1692
100
AcDbEntity
  8
COOLING
100
AcDbLine
 10
17.896842
 20
4.314905
 30
0.0
 11
16.109444
 21
4.314905
 31
0.0
  0
LINE
  5
1693
100
AcDbEntity
  8
COOLING
100
AcDbLine
 10
16.109444
 20
4.303094
 30
0.0
 11
17.896842
 21
4.303094
 31
0.0
  0
LINE
  5
1694
100
AcDbEntity
  8
COOLING
100
AcDbLine
 10
16.109444
 20
4.314905
 30
0.0
 11
16.109444
 21
4.303094
 31
0.0
  0
LINE
  5
1695
100
AcDbEntity
  8
COOLING
100
AcDbLine
 10
14.31614
 20
4.303094
 30
0.0
 11
14.31614
 21
4.314905
 31
0.0
  0
LINE
  5
1696
100
AcDbEntity
  8
COOLING
100
AcDbLine
 10
14.31614
 20
4.314905
 30
0.0
 11
12.528742
 21
4.314905
 31
0.0
  0
LINE
  5
1697
100
AcDbEntity
  8
COOLING
100
AcDbLine
 10
12.528742
 20
4.303094
 30
0.0
 11
14.31614
 21
4.303094
 31
0.0
  0
LINE
  5
1698
100
AcDbEntity
  8
COOLING
100
AcDbLine
 10
12.528742
 20
4.314905
 30
0.0
 11
12.528742
 21
4.303094
 31
0.0
  0
LINE
  5
1699
100
AcDbEntity
  8
COOLING
100
AcDbLine
 10
14.55236
 20
4.027504
 30
0.0
 11
14.55236
 21
4.039315
 31
0.0
  0
LINE
  5
169A
100
AcDbEntity
  8
COOLING
100
AcDbLine
 10
14.55236
 20
4.039315
 30
0.0
 11
12.883072
 21
4.039315
 31
0.0
  0
LINE
  5
169B
100
AcDbEntity
  8
COOLING
100
AcDbLine
 10
12.883072
 20
4.027504
 30
0.0
 11
14.55236
 21
4.027504
 31
0.0
  0
LINE
  5
169C
100
AcDbEntity
  8
COOLING
100
AcDbLine
 10
12.883072
 20
4.039315
 30
0.0
 11
12.883072
 21
4.027504
 31
0.0
  0
INSERT
  5
169D
100
AcDbEntity
  8
SECTION
 62
     1
100
AcDbBlockReference
  2
*X9
 10
20.682697
 20
13.54734
 30
0.0
 41
0.03937
 42
0.03937
 43
0.03937
 50
180.0
1001
ACAD
1000
HATCH
1002
{
1070
    19
1000
ANSI31
1040
5.0
1040
3.141593
1000
ASC_BOUNDS
1070
     1
1070
     2
1070
     9
1005
16B9
1005
16B4
1005
16BA
1005
16A9
1005
16AF
1005
16AA
1005
16A0
1005
16CF
1005
169F
1000
ASC_SEEDPOINT
1011
6.945354
1021
7.204059
1031
0.0
1002
}
  0
INSERT
  5
169E
100
AcDbEntity
  8
SECTION
 62
     1
100
AcDbBlockReference
  2
*X8
 10
20.682697
 20
13.54734
 30
0.0
 41
0.03937
 42
0.03937
 43
0.03937
 50
180.0
1001
ACAD
1000
HATCH
1002
{
1070
    19
1000
ANSI31
1040
5.0
1040
0.0
1000
ASC_BOUNDS
1070
     1
1070
     2
1070
    13
1005
16CC
1005
16C7
1005
16C1
1005
16BC
1005
16C6
1005
16A1
1005
16D0
1005
16A4
1005
16CD
1005
16A2
1005
16D2
1005
16A3
1005
16BB
1000
ASC_SEEDPOINT
1011
6.945354
1021
7.204059
1031
0.0
1002
}
  0
LINE
  5
169F
100
AcDbEntity
  8
SECTION
 62
     1
100
AcDbLine
 10
8.801691
 20
4.746046
 30
0.0
 11
8.801691
 21
4.639763
 31
0.0
1001
ACAD
1000
ASC_BOUNDS
1002
{
1070
    19
1005
169D
1002
}
  0
LINE
  5
16A0
100
AcDbEntity
  8
SECTION
 62
     1
100
AcDbLine
 10
8.90799
 20
4.674211
 30
0.0
 11
8.90799
 21
4.746046
 31
0.0
1001
ACAD
1000
ASC_BOUNDS
1002
{
1070
    19
1005
169D
1002
}
  0
LINE
  5
16A1
100
AcDbEntity
  8
SECTION
 62
     1
100
AcDbLine
 10
9.0261
 20
4.746046
 30
0.0
 11
9.0261
 21
4.674211
 31
0.0
1001
ACAD
1000
ASC_BOUNDS
1002
{
1070
    19
1005
169E
1002
}
  0
LINE
  5
16A2
100
AcDbEntity
  8
SECTION
 62
     1
100
AcDbLine
 10
9.171769
 20
4.746046
 30
0.0
 11
9.171769
 21
4.709644
 31
0.0
1001
ACAD
1000
ASC_BOUNDS
1002
{
1070
    19
1005
169E
1002
}
  0
LINE
  5
16A3
100
AcDbEntity
  8
SECTION
 62
     1
100
AcDbLine
 10
9.191454
 20
4.639763
 30
0.0
 11
9.191454
 21
4.746046
 31
0.0
1001
ACAD
1000
ASC_BOUNDS
1002
{
1070
    19
1005
169E
1002
}
  0
LINE
  5
16A4
100
AcDbEntity
  8
SECTION
 62
     1
100
AcDbLine
 10
9.093029
 20
4.709644
 30
0.0
 11
9.093029
 21
4.746046
 31
0.0
1001
ACAD
1000
ASC_BOUNDS
1002
{
1070
    19
1005
169E
1002
}
  0
LINE
  5
16A5
100
AcDbEntity
  8
SECTION
 62
     1
100
AcDbLine
 10
9.006415
 20
4.639763
 30
0.0
 11
9.006415
 21
4.594094
 31
0.0
  0
LINE
  5
16A6
100
AcDbEntity
  8
SECTION
 62
     1
100
AcDbLine
 10
8.927675
 20
4.594094
 30
0.0
 11
8.927675
 21
4.639763
 31
0.0
  0
LINE
  5
16A7
100
AcDbEntity
  8
HDI
 62
     1
100
AcDbLine
 10
8.999144
 20
4.674211
 30
0.0
 11
8.934945
 21
4.674211
 31
0.0
  0
LINE
  5
16A8
100
AcDbEntity
  8
SECTION
 62
     1
100
AcDbLine
 10
8.934255
 20
4.639763
 30
0.0
 11
8.999834
 21
4.639763
 31
0.0
  0
LINE
  5
16A9
100
AcDbEntity
  8
HDI
 62
     1
100
AcDbLine
 10
8.801691
 20
4.639763
 30
0.0
 11
8.927675
 21
4.639763
 31
0.0
1001
ACAD
1000
ASC_BOUNDS
1002
{
1070
    19
1005
169D
1002
}
  0
POLYLINE
  5
16AA
100
AcDbEntity
  8
HDI
 62
     1
100
AcDb2dPolyline
 66
     1
 10
0.0
 20
0.0
 30
0.0
1001
ACAD
1000
ASC_BOUNDS
1002
{
1070
    19
1005
169D
1002
}
  0
VERTEX
  5
16AB
100
AcDbEntity
  8
HDI
 62
     1
100
AcDbVertex
100
AcDb2dVertex
 10
8.927675
 20
4.649432
 30
0.0
  0
VERTEX
  5
16AC
100
AcDbEntity
  8
HDI
 62
     1
100
AcDbVertex
100
AcDb2dVertex
 10
8.936198
 20
4.657306
 30
0.0
  0
VERTEX
  5
16AD
100
AcDbEntity
  8
HDI
 62
     1
100
AcDbVertex
100
AcDb2dVertex
 10
8.927675
 20
4.66518
 30
0.0
  0
SEQEND
  5
16AE
100
AcDbEntity
  8
HDI
 62
     1
  0
POLYLINE
  5
16AF
100
AcDbEntity
  8
HDI
 62
     1
100
AcDb2dPolyline
 66
     1
 10
0.0
 20
0.0
 30
0.0
1001
ACAD
1000
ASC_BOUNDS
1002
{
1070
    19
1005
169D
1002
}
  0
VERTEX
  5
16B0
100
AcDbEntity
  8
HDI
 62
     1
100
AcDbVertex
100
AcDb2dVertex
 10
8.927675
 20
4.66518
 30
0.0
  0
VERTEX
  5
16B1
100
AcDbEntity
  8
HDI
 62
     1
100
AcDbVertex
100
AcDb2dVertex
 10
8.936198
 20
4.673054
 30
0.0
  0
VERTEX
  5
16B2
100
AcDbEntity
  8
HDI
 62
     1
100
AcDbVertex
100
AcDb2dVertex
 10
8.934945
 20
4.674211
 30
0.0
  0
SEQEND
  5
16B3
100
AcDbEntity
  8
HDI
 62
     1
  0
POLYLINE
  5
16B4
100
AcDbEntity
  8
HDI
 62
     1
100
AcDb2dPolyline
 66
     1
 10
0.0
 20
0.0
 30
0.0
1001
ACAD
1000
ASC_BOUNDS
1002
{
1070
    19
1005
169D
1002
}
  0
VERTEX
  5
16B5
100
AcDbEntity
  8
HDI
 62
     1
100
AcDbVertex
100
AcDb2dVertex
 10
8.934255
 20
4.639763
 30
0.0
  0
VERTEX
  5
16B6
100
AcDbEntity
  8
HDI
 62
     1
100
AcDbVertex
100
AcDb2dVertex
 10
8.936198
 20
4.641558
 30
0.0
  0
VERTEX
  5
16B7
100
AcDbEntity
  8
HDI
 62
     1
100
AcDbVertex
100
AcDb2dVertex
 10
8.927675
 20
4.649432
 30
0.0
  0
SEQEND
  5
16B8
100
AcDbEntity
  8
HDI
 62
     1
  0
LINE
  5
16B9
100
AcDbEntity
  8
SECTION
 62
     1
100
AcDbLine
 10
8.927675
 20
4.639763
 30
0.0
 11
8.934255
 21
4.639763
 31
0.0
1001
ACAD
1000
ASC_BOUNDS
1002
{
1070
    19
1005
169D
1002
}
  0
LINE
  5
16BA
100
AcDbEntity
  8
HDI
 62
     1
100
AcDbLine
 10
8.934945
 20
4.674211
 30
0.0
 11
8.90799
 21
4.674211
 31
0.0
1001
ACAD
1000
ASC_BOUNDS
1002
{
1070
    19
1005
169D
1002
}
  0
LINE
  5
16BB
100
AcDbEntity
  8
HDI
 62
     1
100
AcDbLine
 10
9.006415
 20
4.639763
 30
0.0
 11
9.191454
 21
4.639763
 31
0.0
1001
ACAD
1000
ASC_BOUNDS
1002
{
1070
    19
1005
169E
1002
}
  0
POLYLINE
  5
16BC
100
AcDbEntity
  8
HDI
 62
     1
100
AcDb2dPolyline
 66
     1
 10
0.0
 20
0.0
 30
0.0
1001
ACAD
1000
ASC_BOUNDS
1002
{
1070
    19
1005
169E
1002
}
  0
VERTEX
  5
16BD
100
AcDbEntity
  8
HDI
 62
     1
100
AcDbVertex
100
AcDb2dVertex
 10
9.006415
 20
4.649432
 30
0.0
  0
VERTEX
  5
16BE
100
AcDbEntity
  8
HDI
 62
     1
100
AcDbVertex
100
AcDb2dVertex
 10
8.997891
 20
4.657306
 30
0.0
  0
VERTEX
  5
16BF
100
AcDbEntity
  8
HDI
 62
     1
100
AcDbVertex
100
AcDb2dVertex
 10
9.006415
 20
4.66518
 30
0.0
  0
SEQEND
  5
16C0
100
AcDbEntity
  8
HDI
 62
     1
  0
POLYLINE
  5
16C1
100
AcDbEntity
  8
HDI
 62
     1
100
AcDb2dPolyline
 66
     1
 10
0.0
 20
0.0
 30
0.0
1001
ACAD
1000
ASC_BOUNDS
1002
{
1070
    19
1005
169E
1002
}
  0
VERTEX
  5
16C2
100
AcDbEntity
  8
HDI
 62
     1
100
AcDbVertex
100
AcDb2dVertex
 10
9.006415
 20
4.66518
 30
0.0
  0
VERTEX
  5
16C3
100
AcDbEntity
  8
HDI
 62
     1
100
AcDbVertex
100
AcDb2dVertex
 10
8.997891
 20
4.673054
 30
0.0
  0
VERTEX
  5
16C4
100
AcDbEntity
  8
HDI
 62
     1
100
AcDbVertex
100
AcDb2dVertex
 10
8.999144
 20
4.674211
 30
0.0
  0
SEQEND
  5
16C5
100
AcDbEntity
  8
HDI
 62
     1
  0
LINE
  5
16C6
100
AcDbEntity
  8
HDI
 62
     1
100
AcDbLine
 10
9.0261
 20
4.674211
 30
0.0
 11
8.999144
 21
4.674211
 31
0.0
1001
ACAD
1000
ASC_BOUNDS
1002
{
1070
    19
1005
169E
1002
}
  0
POLYLINE
  5
16C7
100
AcDbEntity
  8
HDI
 62
     1
100
AcDb2dPolyline
 66
     1
 10
0.0
 20
0.0
 30
0.0
1001
ACAD
1000
ASC_BOUNDS
1002
{
1070
    19
1005
169E
1002
}
  0
VERTEX
  5
16C8
100
AcDbEntity
  8
HDI
 62
     1
100
AcDbVertex
100
AcDb2dVertex
 10
8.999834
 20
4.639763
 30
0.0
  0
VERTEX
  5
16C9
100
AcDbEntity
  8
HDI
 62
     1
100
AcDbVertex
100
AcDb2dVertex
 10
8.997891
 20
4.641558
 30
0.0
  0
VERTEX
  5
16CA
100
AcDbEntity
  8
HDI
 62
     1
100
AcDbVertex
100
AcDb2dVertex
 10
9.006415
 20
4.649432
 30
0.0
  0
SEQEND
  5
16CB
100
AcDbEntity
  8
HDI
 62
     1
  0
LINE
  5
16CC
100
AcDbEntity
  8
SECTION
 62
     1
100
AcDbLine
 10
8.999834
 20
4.639763
 30
0.0
 11
9.006415
 21
4.639763
 31
0.0
1001
ACAD
1000
ASC_BOUNDS
1002
{
1070
    19
1005
169E
1002
}
  0
LINE
  5
16CD
100
AcDbEntity
  8
SECTION
 62
     1
100
AcDbLine
 10
9.171769
 20
4.709644
 30
0.0
 11
9.093029
 21
4.709644
 31
0.0
1001
ACAD
1000
ASC_BOUNDS
1002
{
1070
    19
1005
169E
1002
}
  0
LINE
  5
16CE
100
AcDbEntity
  8
SECTION
 62
     1
100
AcDbLine
 10
8.90799
 20
4.746046
 30
0.0
 11
9.0261
 21
4.746046
 31
0.0
  0
LINE
  5
16CF
100
AcDbEntity
  8
SECTION
 62
     1
100
AcDbLine
 10
8.90799
 20
4.746046
 30
0.0
 11
8.801691
 21
4.746046
 31
0.0
1001
ACAD
1000
ASC_BOUNDS
1002
{
1070
    19
1005
169D
1002
}
  0
LINE
  5
16D0
100
AcDbEntity
  8
SECTION
 62
     1
100
AcDbLine
 10
9.093029
 20
4.746046
 30
0.0
 11
9.0261
 21
4.746046
 31
0.0
1001
ACAD
1000
ASC_BOUNDS
1002
{
1070
    19
1005
169E
1002
}
  0
LINE
  5
16D1
100
AcDbEntity
  8
SECTION
 62
     1
100
AcDbLine
 10
9.171769
 20
4.746046
 30
0.0
 11
9.093029
 21
4.746046
 31
0.0
  0
LINE
  5
16D2
100
AcDbEntity
  8
SECTION
 62
     1
100
AcDbLine
 10
9.191454
 20
4.746046
 30
0.0
 11
9.171769
 21
4.746046
 31
0.0
1001
ACAD
1000
ASC_BOUNDS
1002
{
1070
    19
1005
169E
1002
}
  0
LINE
  5
16D3
100
AcDbEntity
  8
SECTION
 62
     1
100
AcDbLine
 10
9.006415
 20
4.594094
 30
0.0
 11
8.927675
 21
4.594094
 31
0.0
  0
LINE
  5
16D4
100
AcDbEntity
  8
SECTION
100
AcDbLine
 10
8.98673
 20
4.252856
 30
0.0
 11
9.006415
 21
4.252856
 31
0.0
1001
ACAD
1000
ASC_BOUNDS
1002
{
1070
    19
1002
}
  0
LINE
  5
16D5
100
AcDbEntity
  8
SECTION
100
AcDbLine
 10
8.98673
 20
4.252856
 30
0.0
 11
8.94736
 21
4.252856
 31
0.0
  0
LINE
  5
16D6
100
AcDbEntity
  8
SECTION
100
AcDbLine
 10
8.927675
 20
4.252856
 30
0.0
 11
8.94736
 21
4.252856
 31
0.0
1001
ACAD
1000
ASC_BOUNDS
1002
{
1070
    19
1002
}
  0
LINE
  5
16D7
100
AcDbEntity
  8
SECTION
100
AcDbLine
 10
8.927675
 20
4.297226
 30
0.0
 11
8.927675
 21
4.252856
 31
0.0
1001
ACAD
1000
ASC_BOUNDS
1002
{
1070
    19
1002
}
  0
LINE
  5
16D8
100
AcDbEntity
  8
SECTION
100
AcDbLine
 10
8.94736
 20
4.297226
 30
0.0
 11
8.98673
 21
4.297226
 31
0.0
  0
POLYLINE
  5
16D9
100
AcDbEntity
  8
SECTION
100
AcDb2dPolyline
 66
     1
 10
0.0
 20
0.0
 30
0.0
 70
     1
1001
ACAD
1000
ASC_BOUNDS
1002
{
1070
    19
1005
16DF
1002
}
  0
VERTEX
  5
16DA
100
AcDbEntity
  8
SECTION
100
AcDbVertex
100
AcDb2dVertex
 10
8.801691
 20
4.587935
 30
0.0
1001
ACAD
1000
ASC_BOUNDS
1002
{
1070
    19
1002
}
  0
VERTEX
  5
16DB
100
AcDbEntity
  8
SECTION
100
AcDbVertex
100
AcDb2dVertex
 10
8.801691
 20
4.297226
 30
0.0
1001
ACAD
1000
ASC_BOUNDS
1002
{
1070
    19
1002
}
  0
VERTEX
  5
16DC
100
AcDbEntity
  8
SECTION
100
AcDbVertex
100
AcDb2dVertex
 10
8.94736
 20
4.297226
 30
0.0
  0
VERTEX
  5
16DD
100
AcDbEntity
  8
SECTION
100
AcDbVertex
100
AcDb2dVertex
 10
8.94736
 20
4.587935
 30
0.0
  0
SEQEND
  5
16DE
100
AcDbEntity
  8
SECTION
1001
ACAD
1000
ASC_BOUNDS
1002
{
1070
    19
1002
}
  0
INSERT
  5
16DF
100
AcDbEntity
  8
SECTION
100
AcDbBlockReference
  2
*X5
 10
19.4868
 20
11.933856
 30
0.0
 41
0.03937
 42
0.03937
 43
0.03937
 50
180.0
1001
ACAD
1000
HATCH
1002
{
1070
    19
1000
ANSI31
1040
10.0
1040
0.0
1000
ASC_BOUNDS
1070
     1
1070
     2
1070
     2
1005
16D9
1005
16E0
1000
ASC_SEEDPOINT
1011
19.4868
1021
11.933856
1031
0.0
1002
}
  0
POLYLINE
  5
16E0
100
AcDbEntity
  8
SECTION
100
AcDb2dPolyline
 66
     1
 10
0.0
 20
0.0
 30
0.0
 70
     1
1001
ACAD
1000
ASC_BOUNDS
1002
{
1070
    19
1005
16DF
1002
}
  0
VERTEX
  5
16E1
100
AcDbEntity
  8
SECTION
100
AcDbVertex
100
AcDb2dVertex
 10
9.191454
 20
4.587935
 30
0.0
1001
ACAD
1000
ASC_BOUNDS
1002
{
1070
    19
1002
}
  0
VERTEX
  5
16E2
100
AcDbEntity
  8
SECTION
100
AcDbVertex
100
AcDb2dVertex
 10
8.98673
 20
4.587935
 30
0.0
1001
ACAD
1000
ASC_BOUNDS
1002
{
1070
    19
1002
}
  0
VERTEX
  5
16E3
100
AcDbEntity
  8
SECTION
100
AcDbVertex
100
AcDb2dVertex
 10
8.98673
 20
4.297226
 30
0.0
  0
VERTEX
  5
16E4
100
AcDbEntity
  8
SECTION
100
AcDbVertex
100
AcDb2dVertex
 10
9.191454
 20
4.297226
 30
0.0
  0
SEQEND
  5
16E5
100
AcDbEntity
  8
SECTION
1001
ACAD
1000
ASC_BOUNDS
1002
{
1070
    19
1002
}
  0
LINE
  5
16E6
100
AcDbEntity
  8
SECTION
100
AcDbLine
 10
9.006415
 20
4.252856
 30
0.0
 11
9.006415
 21
4.297226
 31
0.0
1001
ACAD
1000
ASC_BOUNDS
1002
{
1070
    19
1002
}
  0
LINE
  5
16E7
100
AcDbEntity
  8
HDI_AIN_12
100
AcDbLine
 10
8.467046
 20
4.249982
 30
0.0
 11
10.08909
 21
4.249982
 31
0.0
  0
LINE
  5
16E8
100
AcDbEntity
  8
HDI_AIN_12
100
AcDbLine
 10
8.467046
 20
4.297226
 30
0.0
 11
10.08909
 21
4.297226
 31
0.0
  0
LINE
  5
16E9
100
AcDbEntity
  8
STAYCLEAR
100
AcDbLine
 10
8.467046
 20
4.43699
 30
0.0
 11
8.742636
 21
4.43699
 31
0.0
  0
LINE
  5
16EA
100
AcDbEntity
  8
STAYCLEAR
100
AcDbLine
 10
8.742636
 20
4.387777
 30
0.0
 11
10.08909
 21
4.387777
 31
0.0
  0
LINE
  5
16EB
100
AcDbEntity
  8
STAYCLEAR
100
AcDbLine
 10
8.742636
 20
4.159431
 30
0.0
 11
10.08909
 21
4.159431
 31
0.0
  0
LINE
  5
16EC
100
AcDbEntity
  8
HDI_AIN_12
100
AcDbLine
 10
10.08909
 20
4.249982
 30
0.0
 11
10.08909
 21
4.297226
 31
0.0
  0
LINE
  5
16ED
100
AcDbEntity
  8
STAYCLEAR
100
AcDbLine
 10
10.08909
 20
4.387777
 30
0.0
 11
10.08909
 21
4.306796
 31
0.0
  0
LINE
  5
16EE
100
AcDbEntity
  8
STAYCLEAR
100
AcDbLine
 10
10.08909
 20
4.159431
 30
0.0
 11
10.08909
 21
4.240413
 31
0.0
  0
LINE
  5
16EF
100
AcDbEntity
  8
STAYCLEAR
100
AcDbLine
 10
8.742636
 20
4.43699
 30
0.0
 11
8.742636
 21
4.387777
 31
0.0
  0
LINE
  5
16F0
100
AcDbEntity
  8
STAYCLEAR
100
AcDbLine
 10
8.742636
 20
4.110219
 30
0.0
 11
8.742636
 21
4.159431
 31
0.0
  0
LINE
  5
16F1
100
AcDbEntity
  8
STAYCLEAR
100
AcDbLine
 10
8.467046
 20
4.43699
 30
0.0
 11
8.467046
 21
4.30858
 31
0.0
  0
LINE
  5
16F2
100
AcDbEntity
  8
HDI_AIN_12
100
AcDbLine
 10
8.467046
 20
4.249982
 30
0.0
 11
8.467046
 21
4.297226
 31
0.0
  0
LINE
  5
16F3
100
AcDbEntity
  8
STAYCLEAR
100
AcDbLine
 10
8.467046
 20
4.110219
 30
0.0
 11
8.467046
 21
4.240413
 31
0.0
  0
LINE
  5
16F4
100
AcDbEntity
  8
STAYCLEAR
100
AcDbLine
 10
8.467046
 20
4.110219
 30
0.0
 11
8.742636
 21
4.110219
 31
0.0
  0
LINE
  5
16F5
100
AcDbEntity
  8
HDI_AIN_12
100
AcDbLine
 10
8.467046
 20
4.588564
 30
0.0
 11
10.08909
 21
4.588564
 31
0.0
  0
LINE
  5
16F6
100
AcDbEntity
  8
HDI_AIN_12
100
AcDbLine
 10
8.467046
 20
4.635808
 30
0.0
 11
10.08909
 21
4.635808
 31
0.0
  0
LINE
  5
16F7
100
AcDbEntity
  8
STAYCLEAR
100
AcDbLine
 10
8.467046
 20
4.775572
 30
0.0
 11
8.742636
 21
4.775572
 31
0.0
  0
LINE
  5
16F8
100
AcDbEntity
  8
STAYCLEAR
100
AcDbLine
 10
8.742636
 20
4.726359
 30
0.0
 11
10.08909
 21
4.726359
 31
0.0
  0
LINE
  5
16F9
100
AcDbEntity
  8
STAYCLEAR
100
AcDbLine
 10
8.742636
 20
4.498013
 30
0.0
 11
10.08909
 21
4.498013
 31
0.0
  0
LINE
  5
16FA
100
AcDbEntity
  8
HDI_AIN_12
100
AcDbLine
 10
10.08909
 20
4.588564
 30
0.0
 11
10.08909
 21
4.635808
 31
0.0
  0
LINE
  5
16FB
100
AcDbEntity
  8
STAYCLEAR
100
AcDbLine
 10
10.08909
 20
4.726359
 30
0.0
 11
10.08909
 21
4.645378
 31
0.0
  0
LINE
  5
16FC
100
AcDbEntity
  8
STAYCLEAR
100
AcDbLine
 10
10.08909
 20
4.498013
 30
0.0
 11
10.08909
 21
4.578995
 31
0.0
  0
LINE
  5
16FD
100
AcDbEntity
  8
STAYCLEAR
100
AcDbLine
 10
8.742636
 20
4.775572
 30
0.0
 11
8.742636
 21
4.726359
 31
0.0
  0
LINE
  5
16FE
100
AcDbEntity
  8
STAYCLEAR
100
AcDbLine
 10
8.742636
 20
4.448801
 30
0.0
 11
8.742636
 21
4.498013
 31
0.0
  0
LINE
  5
16FF
100
AcDbEntity
  8
STAYCLEAR
100
AcDbLine
 10
8.467046
 20
4.775572
 30
0.0
 11
8.467046
 21
4.647162
 31
0.0
  0
LINE
  5
1700
100
AcDbEntity
  8
HDI_AIN_12
100
AcDbLine
 10
8.467046
 20
4.588564
 30
0.0
 11
8.467046
 21
4.635808
 31
0.0
  0
LINE
  5
1701
100
AcDbEntity
  8
STAYCLEAR
100
AcDbLine
 10
8.467046
 20
4.448801
 30
0.0
 11
8.467046
 21
4.578995
 31
0.0
  0
LINE
  5
1702
100
AcDbEntity
  8
STAYCLEAR
100
AcDbLine
 10
8.467046
 20
4.448801
 30
0.0
 11
8.742636
 21
4.448801
 31
0.0
  0
LINE
  5
1703
100
AcDbEntity
  8
COOLING
100
AcDbLine
 10
12.525789
 20
4.303094
 30
0.0
 11
12.525789
 21
4.314905
 31
0.0
  0
LINE
  5
1704
100
AcDbEntity
  8
COOLING
100
AcDbLine
 10
12.525789
 20
4.314905
 30
0.0
 11
10.738391
 21
4.314905
 31
0.0
  0
LINE
  5
1705
100
AcDbEntity
  8
COOLING
100
AcDbLine
 10
10.738391
 20
4.303094
 30
0.0
 11
12.525789
 21
4.303094
 31
0.0
  0
LINE
  5
1706
100
AcDbEntity
  8
COOLING
100
AcDbLine
 10
10.738391
 20
4.314905
 30
0.0
 11
10.738391
 21
4.303094
 31
0.0
  0
LINE
  5
1707
100
AcDbEntity
  8
COOLING
100
AcDbLine
 10
12.880119
 20
4.027504
 30
0.0
 11
12.880119
 21
4.039315
 31
0.0
  0
LINE
  5
1708
100
AcDbEntity
  8
COOLING
100
AcDbLine
 10
12.880119
 20
4.039315
 30
0.0
 11
11.210831
 21
4.039315
 31
0.0
  0
LINE
  5
1709
100
AcDbEntity
  8
COOLING
100
AcDbLine
 10
11.210831
 20
4.027504
 30
0.0
 11
12.880119
 21
4.027504
 31
0.0
  0
LINE
  5
170A
100
AcDbEntity
  8
COOLING
100
AcDbLine
 10
11.210831
 20
4.039315
 30
0.0
 11
11.210831
 21
4.027504
 31
0.0
  0
ENDSEC
  0
SECTION
  2
OBJECTS
  0
DICTIONARY
  5
C
100
AcDbDictionary
  3
ACAD_GROUP
350
D
  3
ACAD_MLINESTYLE
350
E
  3
ACASAPPOBJECT
350
7B
  3
ACASGREF_MASTER
350
2D
  3
ACCELVIEW
350
86
  3
ACDMSYSVARMGR
350
49
  3
ACGREF_MASTER
350
2B
  3
ACME_COMMAND_HISTORY
350
29
  3
ACME_SCOPE_NAME
350
28
  3
AD_APPL
350
3C
  3
AD_DRAWMGR_NAME
350
5E
  3
AD_GREF_MODULE
350
44
  3
AD_HOLENOTE_REPOSITORY
350
43
  3
ADSYSVARMGR
350
32
  3
AMI_MASTER
350
2C
  3
AUTOCAD_ASSEMBLIES_PROJECT
350
6A
  3
DESIGNER_ASSEMBLIES_SYSVARS
350
65
  0
DICTIONARY
  5
D
102
{ACAD_REACTORS
330
C
102
}
100
AcDbDictionary
  0
DICTIONARY
  5
E
102
{ACAD_REACTORS
330
C
102
}
100
AcDbDictionary
  3
STANDARD
350
13
  0
ACAD_ZOMBIE_OBJECT
  5
7B
102
{ACAD_REACTORS
330
C
102
}
100
AcDbZombieObject
 90
      499
 91
      536
 93
        2
310
90
360
79
 94
        0
  0
ACAD_ZOMBIE_OBJECT
  5
2D
102
{ACAD_REACTORS
330
C
102
}
100
AcDbZombieObject
 90
      499
 91
      505
 93
       34
310
0100004040
 94
        0
  0
ACAD_ZOMBIE_OBJECT
  5
86
102
{ACAD_REACTORS
330
C
102
}
100
AcDbZombieObject
 90
      499
 91
      537
 93
       12
310
9014
330
3D
 94
        0
  0
ACAD_ZOMBIE_OBJECT
  5
49
102
{ACAD_REACTORS
330
C
102
}
100
AcDbZombieObject
 90
      499
 91
      510
 93
      176
310
4C5114810100000000000000000000000000000000004F
330
4A
330
4B
330
4C
330
4D
330
4E
330
50
330
52
330
53
330
54
330
55
330
56
330
57
330
58
330
59
330
5A
330
5B
330
5D
 94
        0
  0
ACAD_ZOMBIE_OBJECT
  5
2B
102
{ACAD_REACTORS
330
C
102
}
100
AcDbZombieObject
 90
      499
 91
      503
 93
      114
310
01000040C000000000000000000000
 94
        0
  0
ACAD_ZOMBIE_OBJECT
  5
29
102
{ACAD_REACTORS
330
C
102
}
100
AcDbZombieObject
 90
      499
 91
      501
 93
     3940
310
478050444494D3140405084E202D205341564501411112534C501014293880B4814D1551590548050444494D31404050A4E202D2053455456415201411112534C501014293880B4814D1551590548050444494D31404050A4E202D2053455456415201411112534C501014293880B4814D1551590548050444494D31404050
310
A4E202D2053455456415201411112534C501014213880B4814D055914050444494D31404050A4E202D2053455456415201411112534C501014293880B4814D1551590548050444494D31404050A4E202D2053455456415201411112534C501014293880B4814D1551590548050444494D31404050A4E202D20534554564152
310
01411112534C501014293880B4814D1551590548050444494D3140405084E202D205341564501411112534C5010142D3880B48149154D513D49140504554E444F80504554E444F805034E455780508554E444546494E4580508554E444546494E458050A4D454E55554E4C4F4144805084D454E554C4F41448050C41445F43
310
4F4E56455254523140805084E202D20554E444F014213880B4815539113C050C414D4C54595045434845434B40C05084E202D20554E444F014253880B481310565154805084E202D20554E444F01415310565154A01415310565154A014115539113E014115539113E014113D41153A0
 94
        0
  0
ACAD_ZOMBIE_OBJECT
  5
28
102
{ACAD_REACTORS
330
C
102
}
100
AcDbZombieObject
 90
      499
 91
      500
 93
      456
310
0101004093100000000000000000000000000000000000000000000000000000000000000000000000000000000000000000000000000901001F
360
2E
360
2F
360
30
360
31
360
33
360
34
360
35
360
36
360
37
360
38
360
39
360
3A
360
3B
360
3E
360
3F
360
40
360
41
360
42
360
45
360
46
360
47
360
48
360
4A
360
4B
360
4C
360
4D
360
4E
360
50
360
52
360
53
360
54
360
55
360
56
360
57
360
58
360
59
360
5A
360
5B
360
5D
360
66
360
67
360
68
360
69
360
6E
360
6F
360
70
360
71
360
72
360
76
330
3D
 94
        0
  0
ACAD_ZOMBIE_OBJECT
  5
3C
102
{ACAD_REACTORS
330
C
102
}
100
AcDbZombieObject
 90
      499
 91
      514
 93
       42
310
000100004340
330
2E
 94
        0
  0
ACAD_ZOMBIE_OBJECT
  5
5E
102
{ACAD_REACTORS
330
C
102
}
100
AcDbZombieObject
 90
      499
 91
      526
 93
       42
310
000100004400
330
45
 94
        0
  0
ACAD_ZOMBIE_OBJECT
  5
44
102
{ACAD_REACTORS
330
C
102
}
100
AcDbZombieObject
 90
      499
 91
      521
 93
      114
310
000000428000000000000000000000
 94
        0
  0
ACAD_ZOMBIE_OBJECT
  5
43
102
{ACAD_REACTORS
330
C
102
}
100
AcDbZombieObject
 90
      499
 91
      520
 93
        8
310
003F
330
42
 94
        0
  0
ACAD_ZOMBIE_OBJECT
  5
32
102
{ACAD_REACTORS
330
C
102
}
100
AcDbZombieObject
 90
      499
 91
      510
 93
      104
310
9094410100000000000000000000
330
33
330
34
330
35
330
36
330
37
330
38
330
39
330
3A
330
3B
 94
        0
  0
ACAD_ZOMBIE_OBJECT
  5
2C
102
{ACAD_REACTORS
330
C
102
}
100
AcDbZombieObject
 90
      499
 91
      504
 93
       34
310
0100004044
 94
        0
  0
ACAD_ZOMBIE_OBJECT
  5
6A
102
{ACAD_REACTORS
330
C
102
}
100
AcDbZombieObject
 90
      499
 91
      527
 93
       58
310
0100004180000000
330
70
330
76
330
71
 94
        0
  0
ACAD_ZOMBIE_OBJECT
  5
65
102
{ACAD_REACTORS
330
C
102
}
100
AcDbZombieObject
 90
      499
 91
      510
 93
       64
310
904441010000000000
330
66
330
67
330
68
330
69
 94
        0
  0
MLINESTYLE
  5
13
102
{ACAD_REACTORS
330
E
102
}
100
AcDbMlineStyle
  2
STANDARD
 70
     0
  3

 62
     0
 51
90.0
 52
90.0
 71
     2
 49
0.5
 62
   256
  6
BYLAYER
 49
-0.5
 62
   256
  6
BYLAYER
  0
ACAD_ZOMBIE_OBJECT
  5
79
100
AcDbZombieObject
 90
      499
 91
      534
 93
      720
310
9064D2E312E313607014B7269BC41100000000000000E03F1EC52B91F85EA10FE1EC52B91F85EA10FD034153471EC52B91F85EA10FC000000FC83D797414650540C000000000000E03F3F2A7C749358940FC000000FC83D797414F
 94
        0
  0
ACAD_ZOMBIE_OBJECT
  5
2E
100
AcDbZombieObject
 90
      499
 91
      506
 93
      280
310
000000000000014119185D1940506462E312E3136014119185D1940506462E312E313600
330
28
330
2F
330
30
330
32
330
3D
 94
        0
  0
ACAD_ZOMBIE_OBJECT
  5
2F
100
AcDbZombieObject
 90
      499
 91
      507
 93
      120
310
00009024410100000092080002A6A600
330
28
330
3F
330
3E
330
0
 94
        0
  0
ACAD_ZOMBIE_OBJECT
  5
30
100
AcDbZombieObject
 90
      499
 91
      508
 93
       46
310
000000009208
330
28
330
0
330
31
 94
        0
  0
ACAD_ZOMBIE_OBJECT
  5
31
100
AcDbZombieObject
 90
      499
 91
      509
 93
       22
310
0000A8
330
28
 94
        0
  0
ACAD_ZOMBIE_OBJECT
  5
33
100
AcDbZombieObject
 90
      499
 91
      511
 93
      124
310
00000142905350D3D39114D414D69050
330
28
 94
        0
  0
ACAD_ZOMBIE_OBJECT
  5
34
100
AcDbZombieObject
 90
      499
 91
      511
 93
      124
310
000001429053549553115353D1115010
330
28
 94
        0
  0
ACAD_ZOMBIE_OBJECT
  5
35
100
AcDbZombieObject
 90
      499
 91
      511
 93
      108
310
00000142105354D2D353D1115010
330
28
 94
        0
  0
ACAD_ZOMBIE_OBJECT
  5
36
100
AcDbZombieObject
 90
      499
 91
      511
 93
      140
310
000001435053511253511254D41353D11160
330
28
 94
        0
  0
ACAD_ZOMBIE_OBJECT
  5
37
100
AcDbZombieObject
 90
      499
 91
      512
 93
      180
310
00000142905354D2D05391D513D3000000000000010400
330
28
 94
        0
  0
ACAD_ZOMBIE_OBJECT
  5
38
100
AcDbZombieObject
 90
      499
 91
      513
 93
      164
310
00000142505354D2D4D516531140505434F4E542A0
330
28
 94
        0
  0
ACAD_ZOMBIE_OBJECT
  5
39
100
AcDbZombieObject
 90
      499
 91
      511
 93
      108
310
00000142105350D3511112535010
330
28
 94
        0
  0
ACAD_ZOMBIE_OBJECT
  5
3A
100
AcDbZombieObject
 90
      499
 91
      513
 93
      116
310
000001425053541054919253114060
330
28
 94
        0
  0
ACAD_ZOMBIE_OBJECT
  5
3B
100
AcDbZombieObject
 90
      499
 91
      511
 93
      100
310
00000142105350D3D35414D5A0
330
28
 94
        0
  0
ACAD_ZOMBIE_OBJECT
  5
3E
100
AcDbZombieObject
 90
      499
 91
      516
 93
      164
310
000092090148200A00000440000FFFFFFFF0000000
330
28
330
3F
330
2F
330
3D
 94
        0
  0
ACAD_ZOMBIE_OBJECT
  5
3F
100
AcDbZombieObject
 90
      499
 91
      517
 93
       82
310
000040520802482A800000
330
28
330
3E
330
2F
330
3D
 94
        0
  0
ACAD_ZOMBIE_OBJECT
  5
40
100
AcDbZombieObject
 90
      499
 91
      509
 93
       22
310
0000A8
330
28
 94
        0
  0
ACAD_ZOMBIE_OBJECT
  5
41
100
AcDbZombieObject
 90
      499
 91
      518
 93
       38
310
0000009208
330
28
330
0
 94
        0
  0
ACAD_ZOMBIE_OBJECT
  5
42
100
AcDbZombieObject
 90
      499
 91
      519
 93
     3196
310
0000419208050A544852555F4452494C4C0142D09312539117D1149253130050A544852555F43424F52450142D09312539117D0D093D4914050A544852555F4353494E4B0142D09312539117D0D4D25392D0648201459EC94958C8094950535112504815121493D551D20B9F4051C7B252563202525414D444941205820252
310
5414D44455020444545507D014F5EC94958C8094950535112504815121493D551D20B9F57141ED0D093D49148094958C80949505350D112504816080949505350D091115408111151541F405437B252563202525414D4449412058202525414D44455020444545507D5C507B43424F524520252563202525414D4344494120
310
58202525414D434244455020444545507D014EDEC94958C8094950535112504815121493D551D20B9F57141ED0D4D25392C8094958C80949505350D112504816080949505350D4D05391C949591F405417B252563202525414D4449412058202525414D44455020444545507D5C507B4353494E4B20252563202525414D434
310
449412058202525414D4353414E472525647D4
330
28
 94
        0
  0
ACAD_ZOMBIE_OBJECT
  5
45
100
AcDbZombieObject
 90
      499
 91
      522
 93
      308
310
0000014119185D1940507442E312E313663014119185D1940507442E312E313663405010000000
330
28
330
46
330
48
330
49
 94
        0
  0
ACAD_ZOMBIE_OBJECT
  5
46
100
AcDbZombieObject
 90
      499
 91
      523
 93
       56
310
0000901441010041
330
28
330
47
 94
        0
  0
ACAD_ZOMBIE_OBJECT
  5
47
100
AcDbZombieObject
 90
      499
 91
      524
 93
       40
310
0000A441015F
330
28
 94
        0
  0
ACAD_ZOMBIE_OBJECT
  5
48
100
AcDbZombieObject
 90
      499
 91
      525
 93
       68
310
0000A44101920A4820
330
28
 94
        0
  0
ACAD_ZOMBIE_OBJECT
  5
4A
100
AcDbZombieObject
 90
      499
 91
      511
 93
      108
310
000001421053521310D05310D010
330
28
 94
        0
  0
ACAD_ZOMBIE_OBJECT
  5
4B
100
AcDbZombieObject
 90
      499
 91
      511
 93
      124
310
000001429053541493D2951654115013
330
28
 94
        0
  0
ACAD_ZOMBIE_OBJECT
  5
4C
100
AcDbZombieObject
 90
      499
 91
      511
 93
      124
310
00000142905354915554D15112535010
330
28
 94
        0
  0
ACAD_ZOMBIE_OBJECT
  5
4D
100
AcDbZombieObject
 90
      499
 91
      511
 93
      132
310
00000143105354D150D51253D391125366
330
28
 94
        0
  0
ACAD_ZOMBIE_OBJECT
  5
4E
100
AcDbZombieObject
 90
      499
 91
      511
 93
      124
310
00000142905355941093D49111549010
330
28
 94
        0
  0
ACAD_ZOMBIE_OBJECT
  5
50
100
AcDbZombieObject
 90
      499
 91
      513
 93
      180
310
00000142905352125113151654114050648494444454E1
330
28
 94
        0
  0
ACAD_ZOMBIE_OBJECT
  5
52
100
AcDbZombieObject
 90
      499
 91
      513
 93
      196
310
00000142905354D150D315165411405085048414E544F4D320
330
28
 94
        0
  0
ACAD_ZOMBIE_OBJECT
  5
53
100
AcDbZombieObject
 90
      499
 91
      511
 93
      108
310
00000142105354D51114D0D51020
330
28
 94
        0
  0
ACAD_ZOMBIE_OBJECT
  5
54
100
AcDbZombieObject
 90
      499
 91
      511
 93
      108
310
00000142105354D5111510541021
330
28
 94
        0
  0
ACAD_ZOMBIE_OBJECT
  5
55
100
AcDbZombieObject
 90
      499
 91
      511
 93
      108
310
00000142105354D5111115131020
330
28
 94
        0
  0
ACAD_ZOMBIE_OBJECT
  5
56
100
AcDbZombieObject
 90
      499
 91
      512
 93
      148
310
00000141905350D310D34295C8FC2F528BC3F4
330
28
 94
        0
  0
ACAD_ZOMBIE_OBJECT
  5
57
100
AcDbZombieObject
 90
      499
 91
      512
 93
      156
310
00000141D05350D311D05402B8716D9CEF7C33F0
330
28
 94
        0
  0
ACAD_ZOMBIE_OBJECT
  5
58
100
AcDbZombieObject
 90
      499
 91
      512
 93
      164
310
00000142105350D313D4D2150295C8FC2F528BC3F0
330
28
 94
        0
  0
ACAD_ZOMBIE_OBJECT
  5
59
100
AcDbZombieObject
 90
      499
 91
      511
 93
      100
310
00000141D05350D31410549010
330
28
 94
        0
  0
ACAD_ZOMBIE_OBJECT
  5
5A
100
AcDbZombieObject
 90
      499
 91
      511
 93
      100
310
0000014210535590539254D222
330
28
 94
        0
  0
ACAD_ZOMBIE_OBJECT
  5
5B
100
AcDbZombieObject
 90
      499
 91
      512
 93
      188
310
00000142D0535312539155121250D2C295C8FC2F5289C3F0
330
28
 94
        0
  0
ACAD_ZOMBIE_OBJECT
  5
5D
100
AcDbZombieObject
 90
      499
 91
      513
 93
      164
310
00000142105350D3151654114050643454E5445520
330
28
 94
        0
  0
ACAD_ZOMBIE_OBJECT
  5
66
100
AcDbZombieObject
 90
      499
 91
      511
 93
      132
310
00000142D05050555513D4D3D315915010
330
28
 94
        0
  0
ACAD_ZOMBIE_OBJECT
  5
67
100
AcDbZombieObject
 90
      499
 91
      511
 93
      156
310
00000143905050555513D054D4D1535093115010
330
28
 94
        0
  0
ACAD_ZOMBIE_OBJECT
  5
68
100
AcDbZombieObject
 90
      499
 91
      511
 93
      148
310
00000143505055925155D49154D513D4915010
330
28
 94
        0
  0
ACAD_ZOMBIE_OBJECT
  5
69
100
AcDbZombieObject
 90
      499
 91
      511
 93
      124
310
00000142D050525394D15495105094E0
330
28
 94
        0
  0
ACAD_ZOMBIE_OBJECT
  5
6E
100
AcDbZombieObject
 90
      499
 91
      528
 93
       32
310
0000000054
330
28
340
6B
330
6F
330
6B
 94
        0
  0
ACAD_ZOMBIE_OBJECT
  5
6F
100
AcDbZombieObject
 90
      499
 91
      529
 93
      111
310
000001411050D05110400522080C
330
28
330
6E
 94
        0
  0
ACAD_ZOMBIE_OBJECT
  5
70
100
AcDbZombieObject
 90
      499
 91
      530
 93
       72
310
000000A44101A4410100
330
28
330
6F
 94
        0
  0
ACAD_ZOMBIE_OBJECT
  5
71
100
AcDbZombieObject
 90
      499
 91
      531
 93
       80
310
0000901441010000000000
330
28
330
72
330
72
330
72
330
72
 94
        0
  0
ACAD_ZOMBIE_OBJECT
  5
72
100
AcDbZombieObject
 90
      499
 91
      532
 93
      173
310
00000000406AAAAAAAAAAAAAAAAA806A44101A441010
330
28
330
71
330
6F
 94
        0
  0
ACAD_ZOMBIE_OBJECT
  5
76
100
AcDbZombieObject
 90
      499
 91
      533
 93
       26
310
00008000
330
28
330
0
 94
        0
  0
ENDSEC
  0
EOF
